--------------------------------------------------------
Fix me now - Garbage
--------------------------------------------------------

By: fxgirl

Intro
e|-------------------------------------------------------|
B|-------------------------------------------------------|
G|--/9-7-----7/9--9b10r9----------/9--7-----7/9--7-------|
D|--/9-7--9--7/9--9b10r9----------/9--7--9--7/9--7--9----|
A|--------9---------------------------=--9----------9----|
E|-------------------------------------------------------|

Verse
e|------------------------------------------------------|
B|------------------------------------------------------|
G|--/9--7-----7/9--9b10r9-------------------------------|
D|--/9--7--9--7/9--9b10r9-------------------------------|
A|---------9--------------------------------------------|
E|------------------------------------------------------|

Verse Guitar 2
e|------------------------------------------------------|
B|-----------10--------------10-------------------------|
G|-------11------11------11------11---------------------|
D|----9---------------9---------------------------------|
A|------------------------------------------------------|
E|------------------------------------------------------|

Chorus: pick rake the second time you play each chord.
Although this sounds weird, listening to
the CD I think it's right, but there's a lot of stuff going on.
e|-------------------------------------------------------|
B|-------------------------------------------------------|
G|----7---------------------------7----------------------|
D|--7-7------5------2------7----7-7-----5-----2-----4----|
A|--5-5----5-5----2-2----7-7----5-5---5-5---2-2---4-4----|
E|---------3-3----0-0----5-5----------3-3---0-0---2-2----|

Lead (2:27) x3 4th time
e|-------------------------------------------------------|
B|----------12b13holdr12-10-----------12b13holdr12--9b10--
G|-------10-----------------------10--------------==-----|
D|---12------------------------12------------------=-----|
A|-------------------------------------------------------|
E|-------------------------------------------------------|

Solo chords
e|-------------------------------------------------------|
B|-------------------------------------------------------|
G|--3-3-3---7-7-7----------------------------------------|
D|--3-3-3---7-7-7---5-5-5---7-7-7------------------------|
A|--1-1-1---5-5-5---5-5-5---7-7-7------------------------|
E|------------------3-3-3---5-5-5------------------------|

2nd Lead break (3:39)
over chorus chords 4th time
e|--------------------------------------------------------|
B|-------9b10holdr9-7--------------------------------10b12|
G|-----7-------------------------7--9b11r9-9b11r9-7-------|
D|--9------------------------9----------------------------|
A|--------------------------------------------------------|
E|--------------------------------------------------------|

Lead over outro
e|--------------------------------------------------------|
B|-------9b10holdr9-7-------------------------------------|
G|-----7--------------------------------------------------|
D|---9----------------------------------------------------|
A|--------------------------------------------------------|
E|--------------------------------------------------------|

===========================================================




Ваше мнение



Капча