ARTIST: GARBAGE
SONG: Drive you home
ALBUM: Beautiful Garbage -2001-
tabbed by charlyghost!
-----AST
AGUANTE ARGENTINA!!!
INTRO
C________________Cmaj7_______________
e|----------------------------0--------|
B|---------1---------0-----------------|
G|-------0----0---------0--------------|
D|----2----------2---------2-----------|
A|-3-----------------------------------|
E|-------------------------------------|
X2

C
It's funny how
e|--------------------0--------|
B|-1---------0-----------------|
G|----0---------0--------------|
D|-------2---------2-----------|
A|-----------------------------|
E|-----------------------------|
Am
Even now
e|--------------------0--------|
B|-1---------0-----------------|
G|----2---------2--------------|
D|-------2---------2-----------|
A|-----------------------------|
E|-----------------------------|
Dm G7 C
You still support me after all of the things that I've done
C
You're so good to me
Am
Waiting patiently
Dm G7 C
And isn't it sad that you still have to ask if I care
C Am Dm G7
I never said I was perfect
C Am Dm G7 C
But I can take you away
C
Walk on shells tonight aaaaAAAAaaaaa
Am
Can't do right tonight aaaaAAAAaaaaa
Dm
And you can't say a word
G7
Cause I leap down your throat
C
So uptight am I
I never said I was perfect
But I can drive you home
I got down on myself
Working too hard
Driving myself to death
Trying to beat out the faults in my head
What a mess I've made
Sure we all make mistakes
But they see me so large that they think I'm immune to the pain
I'm praying for a miracle
But I won't hold my breath
I never said I was perfect
But can you drive me

CHORDS>
-*-----
C G7 Dm Am
e|-0----1----1----0-----||
B|-1----0----3----1-----||
G|-0----0----2----2-----||
D|-2----0----0----2-----||
A|-3----2----0----0-----||
E|-0----3----X----0-----||
I HOPE YOU LIKE IT MOTHERFUCKERS!+
THANX.
me at: [email protected]
bye,
charlyghost!




Ваше мнение



Капча