Intro
|-2-2-2-2-4-4-4-4-2-2-2-2-4-4-4-4-|
|-3-3-3-3-5-5-5-5-3-3-3-3-5-5-5-5-|
|-2-2-2-2-4-4-4-4-2-2-2-2-4-4-4-4-|
|-x-x-x-x-x-x-x-x-x-x-x-x-x-x-x-x-|
|-x-x-x-x-x-x-x-x-x-x-x-x-x-x-x-x-|
|-x-x-x-x-x-x-x-x-x-x-x-x-x-x-x-x-|
Verse #1
|-0--00-0-0--00-0-0--00-0-0--00-0-2-2-2-2-4-4-4-4-2-2-2-2-4-4-4-4-|
|-3--33-3-5--55-5-3--33-3-5--55-5-3-3-3-3-5-5-5-5-3-3-3-3-5-5-5-5-|
|-3--33-3-4--44-4-3--33-3-4--44-4-2-2-2-2-4-4-4-4-2-2-2-2-4-4-4-4-|
|-3--33-3-4--44-4-3--33-3-4--44-4-x-x-x-x-x-x-x-x-x-x-x-x-x-x-x-x-|
|-0--00-0-0--00-0-0--00-0-0--00-0-x-x-x-x-x-x-x-x-x-x-x-x-x-x-x-x-|
|---------------------------------x-x-x-x-x-x-x-x-x-x-x-x-x-x-x-x-|
|-0--00-0-0--00-0-0--00-0-0--00-0-2-2-2-2-4-4-4-4-2-2-2-2-5-5-5-5-|
|-3--33-3-5--55-5-3--33-3-5--55-5-3-3-3-3-5-5-5-5-3-3-3-3-6-6-6-6-|
|-3--33-3-4--44-4-3--33-3-4--44-4-2-2-2-2-4-4-4-4-2-2-2-2-5-5-5-5-|
|-3--33-3-4--44-4-3--33-3-4--44-4-x-x-x-x-x-x-x-x-x-x-x-x-x-x-x-x-|
|-0--00-0-0--00-0-0--00-0-0--00-0-x-x-x-x-x-x-x-x-x-x-x-x-x-x-x-x-|
|---------------------------------x-x-x-x-x-x-x-x-x-x-x-x-x-x-x-x-|
In a modern culture,
My friend you must be careful,
They've a million…
Ways to kill you…
In this dangerous world,
There's an art to growing old,
Taking chances…
Magic happens…
Chorus
|-0--00-0-0--00-0-2--22-2-5--55-5-0--00-0-0--00-0-2-2-2-2-2-2-2-2-|
|-3--33-3-5--55-5-3--33-3-6--66-6-3--33-3-5--55-5-3-3-3-3-3-3-3-3-|
|-3--33-3-4--44-4-2--22-2-5--55-5-3--33-3-4--44-4-2-2-2-2-2-2-2-2-|
|-3--33-3-4--44-4-x--xx-x-x--xx-x-3--33-3-4--44-4-x-x-x-x-x-x-x-x-|
|-0--00-0-0--00-0-x--xx-x-x--xx-x-0--00-0-0--00-0-x-x-x-x-x-x-x-x-|
|-----------------x--xx-x-x--xx-x-----------------x-x-x-x-x-x-x-x-|
|-0--00-0-0--00-0-2--22-2-5--55-5-0--00-0-0--00-0--2--2----2----2----2-|
|-3--33-3-5--55-5-3--33-3-6--66-6-3--33-3-5--55-5---3----3----3----3---|
|-3--33-3-4--44-4-2--22-2-5--55-5-3--33-3-4--44-4----2----2----2----2--|
|-3--33-3-4--44-4-x--xx-x-x--xx-x-3--33-3-4--44-4----------------------|
|-0--00-0-0--00-0-x--xx-x-x--xx-x-0--00-0-0--00-0----------------------|
|----------------------------------------------------------------------|
One mistake's all it takes,
And your life has come undone…
Walk away, coz you're breaking up the girl…
It's a drag, I know it's hard,
But you're tearing her apart,
Walk away, coz you're breaking up the girl…
Verse #2
|-0--00-0-0--00-0-0--00-0-0--00-0-2-2-2-2-4-4-4-4-2-2-2-2-4-4-4-4-|
|-3--33-3-5--55-5-3--33-3-5--55-5-3-3-3-3-5-5-5-5-3-3-3-3-5-5-5-5-|
|-3--33-3-4--44-4-3--33-3-4--44-4-2-2-2-2-4-4-4-4-2-2-2-2-4-4-4-4-|
|-3--33-3-4--44-4-3--33-3-4--44-4-x-x-x-x-x-x-x-x-x-x-x-x-x-x-x-x-|
|-0--00-0-0--00-0-0--00-0-0--00-0-x-x-x-x-x-x-x-x-x-x-x-x-x-x-x-x-|
|---------------------------------x-x-x-x-x-x-x-x-x-x-x-x-x-x-x-x-|
|-0--00-0-0--00-0-0--00-0-0--00-0-2-2-2-2-4-4-4-4-2-2-2-2-5-5-5-5-|
|-3--33-3-5--55-5-3--33-3-5--55-5-3-3-3-3-5-5-5-5-3-3-3-3-6-6-6-6-|
|-3--33-3-4--44-4-3--33-3-4--44-4-2-2-2-2-4-4-4-4-2-2-2-2-5-5-5-5-|
|-3--33-3-4--44-4-3--33-3-4--44-4-x-x-x-x-x-x-x-x-x-x-x-x-x-x-x-x-|
|-0--00-0-0--00-0-0--00-0-0--00-0-x-x-x-x-x-x-x-x-x-x-x-x-x-x-x-x-|
|---------------------------------x-x-x-x-x-x-x-x-x-x-x-x-x-x-x-x-|
I am afraid,
That there's more to be afraid of,
Here today and gone tomorrow…
Don't end up in the gutter,
Just like the one before,
You're just the same…
Such a loser…
Repeat Chorus
Bridge
|-2-2-2-2-4-4-4-4-2-2-2-2-4-4-4-4-2-2-2-2-4-4-4-4-2-2-2-2-4-4---|
|-3-3-3-3-5-5-5-5-3-3-3-3-5-5-5-5-3-3-3-3-5-5-5-5-3-3-3-3-5-5---|
|-2-2-2-2-4-4-4-4-2-2-2-2-4-4-4-4-2-2-2-2-4-4-4-4-2-2-2-2-4-4---|
|-x-x-x-x-x-x-x-x-x-x-x-x-x-x-x-x-x-x-x-x-x-x-x-x-x-x-x-x-x-x---|
|-x-x-x-x-x-x-x-x-x-x-x-x-x-x-x-x-x-x-x-x-x-x-x-x-x-x-x-x-x-x---|
|-x-x-x-x-x-x-x-x-x-x-x-x-x-x-x-x-x-x-x-x-x-x-x-x-x-x-x-x-x-x---|
You've got to let her go because you're breaking up…
Girl…
Girl…
Repeat Chorus
Outro
|-2-2-2-2-2-2-2-2-4-4-4-4-6-6-6-6-4-4-4-4-6-6-6-6-4-4-4-4-6-6-6-6-4---|
|-3-3-3-3-3-3-3-3-5-5-5-5-7-7-7-7-5-5-5-5-7-7-7-7-5-5-5-5-7-7-7-7-5---|
|-2-2-2-2-2-2-2-2-4-4-4-4-6-6-6-6-4-4-4-4-6-6-6-6-4-4-4-4-6-6-6-6-4---|
|-x-x-x-x-x-x-x-x-x-x-x-x-x-x-x-x-x-x-x-x-x-x-x-x-x-x-x-x-x-x-x-x-x---|
|-x-x-x-x-x-x-x-x-x-x-x-x-x-x-x-x-x-x-x-x-x-x-x-x-x-x-x-x-x-x-x-x-x---|
|-x-x-x-x-x-x-x-x-x-x-x-x-x-x-x-x-x-x-x-x-x-x-x-x-x-x-x-x-x-x-x-x-x---|
You've got to let her go because you're breaking up…
Girl…
Girl…




Ваше мнение



Капча