Breaking up the Girl
Intro
------------------------0/9-9-9-9-7-7-7/2px3---
-----------------------------------------------
--1-1-1-1---1-1-1-1----------------------------
--2-2-2-2---2-2-2-2----------------------------
--2-2-2-2---2-2-2-2----------------------------
-----------------------------------------------
Play this 2 times (verse)
-2-2-2-2----4-4-4-4-------------2-2-2-5-5-5-2-2-2-5-5-5
-2-2-2-2----4-4-4-4-------------3-3-3-6-6-6-3-3-3-6-6-6
-3-3-3-3----6-6-6-6---2-2-2-2---2-2-2-5-5-5-2-2-2-5-5-5
-4-4-4-4----6-6-6-6---2-2-2-2--------------------------
-4-4-4-4----4-4-4-4---0-0-0-0--------------------------
-2-2-2-2-----------------------------------------------
Chorus play twice
-------4-4-4-2-2-2-1-1-1-2-2-2-
-------4-4-4-3-3-3-------3-3-3-
-2-2-2-6-6-6-2-2-2-2-2-2-2-2-2-
-2-2-2-6-6-6-------3-3-3-------
-0-0-0-4-4-4-------------------
-------------------------------
outro the play verse again
-2-2-2-5-5-5-5-5-----------
-3-3-3-6-6-6-6-6-----------
-2-2-2-5-5-5-5-5-----------
---------------------------
---------------------------
---------------------------
gotta let it go because youre....
-----------------------------------
------------------------10-12-12(b)
---6-8-8(b)-8-6-9---11-------------
-7---------------------------------
------------------------------------
------------------------------------
-------------------------14x5-15-
12-10-12---12(b)vvvvvvv---------
-------------------------11---12-
---------------------------------
---------------------------------
---------------------------------
gracias a jorge por este tab




Ваше мнение



Капча