Garbage - Androgyny
Tabbed By: Myke
EMail: [email protected]

Standard Tuning

Intro/Chorus (Guitar 1):

|----------------------------------------------|
|----------------------------------------------|
|----------------------------------------------|
|------2----------------------2----------------|
|-----------0h2-5--0h2-------------0h2-5--0h2--|
|--0-0--------------------0-0------------------|

Intro/Chorus (Guitar 2):

|----------------------------------------------|
|-------5----------------------5---------------|
|-------4----------------------4---------------|
|--2-2--2-----------------2-2--2---------------|
|--2-2--------------------2-2------------------|
|--0-0--------------------0-0------------------|

Verse (Guitar 1):

|-------------|
|-------------|
|--2/42p0----|
|----------2--|
|-------------|
|-------------|




Ваше мнение



Капча