GAMMA RAY
"Tribute To The Past"
from the album Insanity and Genius
transcribed by Matt Johnsen
PART 1
guitar 1 (play twice)
[ ----------------------|--------------------------|----------------------|----------------------||
[ ----------------------|--------------------------|----------------------|----------------------||
[ ----------------------|--------------------------|----------------------|----------------------||
[ ----------------------|--------------------------|----------------------|---------5----------7-||
[ -2-2-2-2-2-2-2-2--5-2-|-2-2-2-2-2-2-2-2--5-2-4-0-|-2-2-2-2-2-2-2-2--5-2-|---------5----------7-||
[ ----------------------|--------------------------|----------------------|-3-3-3-3-3--5-5-5-5-5-||
[
[ guitar 2 (play SECOND TIME through part 1)
[
[
[ ----------------------|--------------------------|----------------------|----------------------||
[ ----------------------|--------------------------|----------------------|----------------------||
[ ----------------------|--------------------------|----------------------|----------------------||
[ -0-0-0-0-0-0-0-0--4-0-|-0-0-0-0-0-0-0-0--4-0-2---|-0-0-0-0-0-0-0-0--4-0-|---------5----------7-||
[ ----------------------|------------------------4-|----------------------|---------5----------7-||
[ ----------------------|--------------------------|----------------------|-3-3-3-3-3--5-5-5-5-5-||
PART 2
guitar 1
hold----- H P
[ ----------|------------------------------|------------|-------------------------------||
[ ----------|------------------------------|------------|-------------------------------||
[ ----------|------------------------------|------------|-------------------------------||
[ ----4--4--|-(4)--------------------------|----4--4--4-|-4--4--4--4--4--4--5--4--2-----||
[ -2--------|---------2--4--5--4-5-4--2--4-|------------|----------------------------5--||
[ ----------|------2-----------------------|-2----------|-------------------------------||
[
[ guitar 2
[
[ hold----- H P
[ ----------|------------9-10-9-10-9-----9-|------------|-------------------------------||
[ -12----12-|-(12)----12--------------12---|-12---------|-14-14-14----------------------||
[ ----11----|------11----------------------|-----11--11-|----------12-12-11-11----------||
[ ----------|------------------------------|------------|----------------------12-12-11-||
[ ----------|------------------------------|------------|-------------------------------||
[ ----------|------------------------------|------------|-------------------------------||
guitar 1
hold----- H P
[ ----------|------------------------------|-----------------------|------------------------||
[ ----------|------------------------------|-----------------------|------------------------||
[ ----------|------------------------------|-----------------------|------------------------||
[ ----4--4--|-(4)--------------------------|---------4----4----4---|-4-4-4-4-4-4--5-4---2---||
[ -2--------|---------2--4--5--4-5-4--2--4-|-----------------------|------------------5-----||
[ ----------|------2-----------------------|----2------------------|------------------------||
[
[ guitar 2
[
[ hold----- H P Bend-Release Bend-Release P
[ ----------|------------9-10-9-10-9-----9-|-12^(14)^(12)--12^(14)-|-19^(20)^(19)--19-17-19-||
[ -12----12-|-(12)----12--------------12---|-----------------------|------------------------||
[ ----11----|------11----------------------|-----------------------|------------------------||
[ ----------|------------------------------|-----------------------|------------------------||
[ ----------|------------------------------|-----------------------|------------------------||
[ ----------|------------------------------|-----------------------|------------------------||
PART 3
guitar 1
[ ----------------------------------------------|----------------------------------------------||
[ ----------------------------------------------|----------------------------------------------||
[ ----------------------------------------------|----------------------------------------------||
[ --------------------------4-4-4-4----4-4-4-4--|--------------------------7-7-7-7----7-7-7-7--||
[ ----------------------------------------------|----------------------------------------------||
[ ---2-2-2-2----2-2-2-2-------------------------|---5-5-5-5----5-5-5-5-------------------------||
[
[ guitar 2
[
[ ----------------------------------------------|-15-15-14-14-12-12-14-14-15-15-14-14-12-12----||
[ -15-15-14-14-12-12-14-14-15-15-14-14-12-12----|-------------------------------------------15-||
[ -------------------------------------------14-|----------------------------------------------||
[ ----------------------------------------------|----------------------------------------------||
[ ----------------------------------------------|----------------------------------------------||
[ ----------------------------------------------|----------------------------------------------||
PART 4 (play four times)
guitar 1 & 2
----------------------------------|--------------------------------||
----------------------------------|--------------------------------||
----------------------------------|--------------------------------||
----------------------------------|------------------------------5-||
----------------------------------|------------------------------5-||
-0-2-2-2-2-2-2-2--0-2-2-2-2-2-2-2-|-0-2-2-2-2-2-2-2--0-2-2-2-2-2-3-||
PART 5
guitar 1
[ -------------------------------------|-------------------------------------|-------------------------------------||
[ -------------------------------------|-------------------------------------|-------------------------------------||
[ -------------------------------------|-------------------------------------|-------------------------------------||
[ -9--------9--------9---9-------------|-9--------9--------9---9-------------|-9--------9--------9---9-------------||
[ -7--------7--------7---7-7-7-7-7-7-7-|-7--------7--------7---7-7-7-7-7-7-7-|-7--------7--------7---7-7-7-7-7-7-7-||
[ -0---0-0--0---0-0--0---0-------------|-0---0-0--0---0-0--0---0-------------|-0---0-0--0---0-0--0---0-------------||
[
[ guitar 2
[
[ -----7-7------7-7------7-7--5-5------|-----7-7------7-7------7-7--5-5------|-----7-7------7-7------7-7--5-5------||
[ -5-5------5-5------5-5----------8-8--|-5-5------5-5------5-5----------8-8--|-5-5------5-5------5-5----------8-8--||
[ -------------------------------------|-------------------------------------|-------------------------------------||
[ -------------------------------------|-------------------------------------|-------------------------------------||
[ -------------------------------------|-------------------------------------|-------------------------------------||
[ -------------------------------------|-------------------------------------|-------------------------------------||
guitar 1
[ ---------------------------------|-------------------------------------|-------------------------------------||
[ ---------------------------------|-------------------------------------|-------------------------------------||
[ -----7-------7--------7------7---|-------------------------------------|-------------------------------------||
[ -----7-------7--------7------7---|-9--------9--------9---9-------------|-9--------9--------9---9-------------||
[ -5-5-5---5-5-5---5-5--5--5-5-5---|-7--------7--------7---7-7-7-7-7-7-7-|-7--------7--------7---7-7-7-7-7-7-7-||
[ ---------------------------------|-0---0-0--0---0-0--0---0-------------|-0---0-0--0---0-0--0---0-------------||
[
[ guitar 2
[
[ ---------------------------------|-----7-7------7-7------7-7--5-5------|-----7-7------7-7------7-7--5-5------||
[ -5-5-9-9-7-7-8-8-5-5-8-8-7-7-5-5-|-5-5------5-5------5-5----------8-8--|-5-5------5-5------5-5----------8-8--||
[ ---------------------------------|-------------------------------------|-------------------------------------||
[ ---------------------------------|-------------------------------------|-------------------------------------||
[ ---------------------------------|-------------------------------------|-------------------------------------||
[ ---------------------------------|-------------------------------------|-------------------------------------||
guitar 1
[ ------------------------------------|------------------------------------||
[ ------------------------------------|------------------------------------||
[ -9-----------------7----------------|-5-----------------2----------------||
[ -9-----------------7----------------|-5-----------------2----------------||
[ -7-----------------5----------------|-3-----------------0----------------||
[ ------------------------------------|------------------------------------||
[
[ guitar 2
[
[ -----7-7--5-5----------7-7--5-5-----|-----7-7--5-5----------7-7--5-5-----||
[ -5-5----------8-8--5-5----------8-8-|-5-5----------8-8--5-5----------8-8-||
[ ------------------------------------|------------------------------------||
[ ------------------------------------|------------------------------------||
[ ------------------------------------|------------------------------------||
[ ------------------------------------|------------------------------------||
PART 6
guitar 1
[ ---------------------|---------------------|---------------------|------------------------||
[ ---------------------|---------------------|---------------------|------------------------||
[ -4--4--4-------------|-2--4--4-------------|-2--4--4-------------|-4--5--4--2--4--2-------||
[ -4--4--4-------------|-2--4--4-------------|-2--4--4-------------|-4--5--4--2--4--2--5--4-||
[ -2--2--2--0-2--2-2-2-|-0--2--2--0-2--2-2-2-|-0--2--2--0-2--2-2-2-|-2--3--2--0--2--0--5--4-||
[ ---------------------|---------------------|---------------------|-------------------3--2-||
[
[ guitar 2
[ Bend
[ ----------14---------|----------(13)^14----|----------14---------|-7--8--7--5--7--5-------||
[ -7-------------------|-7-------------------|-7-------------------|-------------------8--7-||
[ ---------------------|---------------------|---------------------|------------------------||
[ ---------------------|---------------------|---------------------|------------------------||
[ ---------------------|---------------------|---------------------|------------------------||
---------------------|---------------------|---------------------|------------------------||
PART 7
guitar 1 & 2
------------------------------|--------------------------------|------------------------------||
------------------------------|--------------------------------|------------------------------||
------------------------------|--------------------------------|------------------------------||
-5--------------7-------------|-9------------------------------|-5--------------7-------------||
-5--------------7-------------|-9------------------------------|-5--------------7-------------||
-3-3-3-3-3-3-3--5-5-5-5-5-5-5-|-7-7-7-7-7-7-7--7-7-7-7-7-7-7-7-|-3-3-3-3-3-3-3--5-5-5-5-5-5-5-||
--------------------------------|------------------------------|-----------|----------||
--------------------------------|------------------------------|-----------|----------||
--------------------------------|------------------------------|-7---------|-----7----||
-9------------------------------|-5--------------7-------------|-7---7---9-|-5---7----||
-9------------------------------|-5--------------7-------------|-5---7---9-|-5---5--4-||
-7-7-7-7-7-7-7--7-7-7-7-7-7-7-7-|-3-3-3-3-3-3-3--5-5-5-5-5-5-5-|-----5---7-|-3--------||
PART 8
guitar 1
[ ------------------------------------|----------------------------||
[ ------------------------------------|----------------------------||
[ ------------------------------------|---------------------7----7-||
[ ------------------------------------|---------------------7----7-||
[ -2-2-2-2--2-2-2-2--2-2-2-2--2-2-2-2-|-0-0-0-0--0-0-0-0--4-5--4-5-||
[ ------------------------------------|----------------------------||
[
[ H P
[ ------------------------------------|----------------------------||
[ -12--------12---14---15---14-15-14--|-10---15--15--14--14---10---||
[ ------11----------------------------|----------------------------||
[ ------------------------------------|----------------------------||
[ ------------------------------------|----------------------------||
[ ------------------------------------|----------------------------||
[
[ guitar 3
[ H P
[ -10--------10---12---14---12-14-12--|-9----14--14--12--12---9----||
[ ------12----------------------------|----------------------------||
[ ------------------------------------|----------------------------||
[ ------------------------------------|----------------------------||
[ ------------------------------------|----------------------------||
[ ------------------------------------|----------------------------||
guitar 1
[ ------------------------------------|------------------------||
[ ------------------------------------|------------------------||
[ ------------------------------------|------------------------||
[ ------------------------------------|---------5-----------7--||
[ -2-2-2-2--2-2-2-2--2-2-2-2--2-2-2-2-|---------5-----------7--||
[ ------------------------------------|-3-3-3-3-3---5-5-5-5-5--||
[
[ guitar 2
[ H P
[ ------------------------------------|---------10-------------||
[ -12--------12---14---15---14-15-14--|-8-8-8-8----10-10-10-10-||
[ ------11----------------------------|------------------------||
[ ------------------------------------|------------------------||
[ ------------------------------------|------------------------||
[ ------------------------------------|------------------------||
[
[ guitar 3
[ H P
[ -10--------10---12---14---12-14-12--|-7-7-7-7-10--9-9-9-9-12-||
[ ------12----------------------------|------------------------||
[ ------------------------------------|------------------------||
[ ------------------------------------|------------------------||
[ ------------------------------------|------------------------||
[ ------------------------------------|------------------------||
PART 9
guitar 1 & 2
---------------------------|---------------------------|--------------------------|---------------------------||
---------------------------|---------------------------|--------------------------|---------------------------||
---------------------------|---------------------------|--------------------------|---------------------------||
-2--4--4-------------------|-2--4--4-------------------|-2--4--4------------------|-2--4--4-------------------||
-2--4--4-------------------|-2--4--4-------------------|-2--4--4------------------|-2--4--4-------------------||
-0--2--2--2-2-2-2--2-2-2-2-|-0--2--2--2-2-2-2--2-2-2-2-|-0--2--2-2-2-2-2--2-2-2-2-|-0--2--2--2-2-2-2--2-2-2-2-||
---------------------------|--------------------|---------------------------|------------------------||
---------------------------|--------------------|---------------------------|------------------------||
-2--4--4-------------------|-2--4--4----2--4--4-|-2--4--4-------------------|-5--4--2--4--2----------||
-2--4--4-------------------|-2--4--4----2--4--4-|-2--4--4-------------------|-5--4--2--4--2--5--4--5-||
-0--2--2--2-2-2-2--2-2-2-2-|-0--2--2----0--2--2-|-0--2--2--2-2-2-2--2-2-2-2-|-3--2--0--2--0--5--4--5-||
---------------------------|--------------------|---------------------------|----------------3--2--3-||
PART 10
guitar 1 & 2
----------------------------------|-----------------------------------|----------------------------------||
----------------------------------|-----------------------------------|----------------------------------||
----------------------------------|-----------------------------------|----------------------------------||
----------------------------------|-----------------------------------|----------------------------------||
----------------------------------|-----------------------------------|----------------------------------||
-0-2-2-2-2-2-2-2--0-2-2-2-2-2-2-2-|-0-2-2-2--0-2-2-2--0-2-2-2-2-2-2-2-|-0-2-2-2-2-2-2-2--0-2-2-2-2-2-2-2-||
-----------------------------------|----------------------------------|------------------------------------||
-----------------------------------|----------------------------------|------------------------------------||
-----------------------------------|----------------------------------|------------------------------------||
-----------------------------------|----------------------------------|------------------------------------||
-----------------------------------|-0-2-2-2-2-2-2-2--0-2-2-2-2-2-2-2-|-0-2-2-2--0-2-2-2--0-2-2-2--0-2-2-2-||
-0-2-2-2--0-2-2-2--0-2-2-2-2-2-2-2-|----------------------------------|------------------------------------||
----------------------------------|------------------------||
----------------------------------|------------------------||
----------------------------------|-4--5--4--2--4--2-------||
----------------------------------|-4--5--4--2--4--2--5--4-||
-0-2-2-2-2-2-2-2--0-2-2-2-2-2-2-2-|-2--3--2--0--2--0--5--4-||
----------------------------------|-------------------3--2-||
PART 11
guitar 1 & 2
----------|----------|----------|--------------------|---------|---------|--------||
----------|----------|----------|--------------------|---------|---------|--------||
-------6--|-------9--|-------9--|--11--9--11--9--11--|------6--|---------|--------||
--4----6--|--7----9--|--11---9--|--11--9--11--9--11--|--4---6--|--7---9--|--5---9-||
--4----4--|--7----7--|--11---7--|--9---7--9---7--9---|--4---4--|--7---9--|--5---9-||
--2-------|--5-------|--9-------|--------------------|--2------|--5---7--|--3---7-||
-------------------------|-------------------------|-------------------------|-------------------------||
-------------------------|-------------------------|-------------------------|-------------------------||
-------------------------|-------------------------|-------------------------|-------------------------||
-4---4-------------------|-2---4-------------------|-2---4-------------------|-2---4-------------------||
-4---4-------------------|-2---4-------------------|-2---4-------------------|-2---4-------------------||
-2-2-2--0-2-2-2--0-2-2-2-|-0-2-2--0-2-2-2--0-2-2-2-|-0-2-2--0-2-2-2--0-2-2-2-|-0-2-2--0-2-2-2--0-2-2-2-||
PART 12
guitar 1 & 2
-------------------------------|--------------------------------|--------------------------------||
-------------------------------|--------------------------------|--------------------------------||
-------------------------------|--------------------------------|-7------------------------------||
-5--------------7--------------|-9------------------------------|-7--------------4---------------||
-5--------------7--------------|-9------------------------------|-5-5-5-5-5-5-5--4---------------||
-3-3-3-3-3-3-3--5--5-5-5-5-5-5-|-7-7-7-7-7-7-7--7-7-7-7-7-7-7-7-|----------------2-2-2-2-2-2-2-2-||
--------------------------------|----------------------------|-----------|------------||
--------------------------------|----------------------------|-----------|------------||
--------------------------------|----------------------------|--7--------|------7-----||
-4------------------------------|-5--------------7-----------|--7--7--9--|--5---7-----||
-4------------------------------|-5--------------7-----------|--5--7--9--|--5---5---4-||
-2-2-2-2-2-2-2--2-2-2-2-2-2-2-2-|-3-3-3-3-3-3-3--5-5-5-5-5-5-|-----5--7--|--3---------||
PART 13
guitar 1 & 2
REPEAT 2X
-------------------------|-------------------------|-------------------------|-------------------------||
-------------------------|-------------------------|-------------------------|-------------------------||
-------------------------|-------------------------|-------------------------|-------------------------||
-5-----------------------|-5-----------------------|-7-----------------------|-7-----------------------||
-5-----------------------|-5-----------------------|-7-----------------------|-7-----------------------||
-3-3-3-3-3--3-3-3--3-3-3-|-3-3-3-3-3--3-3-3--3-3-3-|-5-5-5-5-5--5-5-5--5-5-5-|-5-5-5-5-5--5-5-5--5-5-5-||
REPEAT 2X
-------------------------|-------------------------|-------------------------|-------------------------||
-------------------------|-------------------------|-------------------------|-------------------------||
-------------------------|-------------------------|-------------------------|-------------------------||
-5-----------------------|-5-----------------------|-7-----------------------|-7-----------------------||
-5-----------------------|-5-----------------------|-7-----------------------|-7-----------------------||
-3-3-3-3-3--5-3-3--3-3-3-|-3-3-3-3-3--5-3-3--5-3-3-|-5-5-5-5-5--7-5-5--5-5-5-|-5-5-5-5-5--7-5-5--7-5-5-||
REPEAT 2X
------------------------|------------------------|---------------------|------------------||
------------------------|------------------------|---------------------|----------------5-||
-6-----6-----6-----6--4-|-2-----2-----2-----2--4-|-6-----6-----6-----6-|-----------5--7---||
-6-----6-----6-----6--4-|-2-----2-----2-----2--4-|-6-----6-----6-----6-|------5--7--------||
-4-4-4-4-4-4-4-4-4-4--2-|-0-0-0-0-0-0-0-0-0-0--2-|-4-4-4-4-4-4-4-4-4-4-|-4--7-------------||
------------------------|------------------------|---------------------|------------------||
hold------
-------|----------------|------------------||
-------|----------------|------------------||
---4---|--(4)--4--4--6--|--7---------------||
---4---|--(4)--4--4--6--|--7--pick-slide!--||
---2---|--(2)--2--2--4--|--5---------------||
-------|----------------|------------------||
PART 14
guitar 1
REPEAT 2X
[ ----------------------------------|--------------------------------------||
[ ----------------------------------|--------------------------------------||
[ ----------------------------------|--------------------------------------||
[ ----------------------------------|--------------------------------------||
[ -2-2-2-2-2-2-2-2--4-4-4-4-4-4-4-4-|-5-5-5-5-5-5-5-5--7-7--10-10-5-5--9-9-||
[ ----------------------------------|--------------------------------------||
[
[ guitar 2
[ REPEAT 2X
[ ----------------------------------|--------------------------------------||
[ ----------------------------------|--------------------------------------||
[ --9----12----9----11----14----11--|---12---10---12---13---10---12---12---||
[ ----------------------------------|--------------------------------------||
[ ----------------------------------|--------------------------------------||
[ ----------------------------------|--------------------------------------||
guitar 1
[ ----------------------------------|--------------------------------------||
[ ----------------------------------|--------------------------------------||
[ ----------------------------------|--------------------------------------||
[ ----------------------------------|--------------------------------------||
[ -2-2-2-2-2-2-2-2--4-4-4-4-4-4-4-4-|-5-5-5-5-5-5-5-5--7-7--10-10-5-5--9-9-||
[ ----------------------------------|--------------------------------------||
[
[ guitar 2
[
[ ----------------------------------|--------------------------------------||
[ ----------------------------------|--------------------------------------||
[ --9----12----9----11----14----11--|---12---10---12---13---10---12---12---||
[ ----------------------------------|--------------------------------------||
[ ----------------------------------|--------------------------------------||
[ ----------------------------------|--------------------------------------||
[
[
[ guitar 3
[
[ ----------------------------------|--------8----10---12---8----10--------||
[ --8----12----8----10----14----10--|---12----------------------------12---||
[ ----------------------------------|--------------------------------------||
[ ----------------------------------|--------------------------------------||
[ ----------------------------------|--------------------------------------||
[ ----------------------------------|--------------------------------------||
guitar 1
[ ----------------------------------|----------------------------------|---------------------------------------||
[ ----------------------------------|----------------------------------|---------------------------------------||
[ ----------------------------------|----------------------------------|---------------------------------------||
[ ----------------------------------|----------------------------------|---------------------------------------||
[ -2-2-2-2-2-2-2-2--4-4-4-4-4-4-4-4-|-5-5-5-5-5-5-5-5--7-7-7-7-7-7-7-7-|-9-9--12-12--7-7--11-11--5-5--9-9--4-4-||
[ ----------------------------------|----------------------------------|---------------------------------------||
[
[ guitar 2
[
[ ----------------------------------|----------------------------------|---------------------------------------||
[ ----------------------------------|----------------------------------|---------------------------------------||
[ -9----12----9----11----14----11---|-------12----8----10----13----10--|-12---10-------------10----------------||
[ ----------------------------------|-12-------------------------------|-----------12---11--------12---11------||
[ ----------------------------------|----------------------------------|------------------------------------12-||
[ ----------------------------------|----------------------------------|---------------------------------------||
[
[ guitar 3
[
[ ----------------------------------|----------------------------------|---------------------------------------||
[ -8----12----8----10----13----10---|-12----15----12---13----17----13--|-15---13---12---10---13---12---10------||
[ ----------------------------------|----------------------------------|------------------------------------12-||
[ ----------------------------------|----------------------------------|---------------------------------------||
[ ----------------------------------|----------------------------------|---------------------------------------||
[ ----------------------------------|----------------------------------|---------------------------------------||
guitar 1
hold---
[ -----------------------|------------------||
[ -----------------------|------------------||
[ -----------------------|------------------||
[ -----------------------|------------------||
[ -2-2--4-4--0-0--4-4--0-|-(0)--------------||
[ -----------------------|------------------||
[
[ guitar 2
[ bend-release
[ -----------------------|------------------||
[ -----------------------|-15^(17)^(15)-----||
[ -12---11-------11------|---------------14-||
[ -----------9-------12--|------------------||
[ -----------------------|------------------||
[ -----------------------|------------------||
[
[ guitar 3
[
[ -----------------------|------------------||
[ -12---10--------12-----|------------------||
[ -----------12-------11-|------------------||
[ -----------------------|------------------||
[ -----------------------|------------------||
[ -----------------------|------------------||
PART 15
guitar 1
REPEAT 2X
[ ------------------------------------|-----------------------------------------||
[ -15-0-0-0-0-0-0-0--14-0-0-0-0-0-0-0-|-17-0-0-0--15-0-0-0--14-0-15-0-17-0-14-0-||
[ ------------------------------------|-----------------------------------------||
[ ------------------------------------|-----------------------------------------||
[ ------------------------------------|-----------------------------------------||
[ ------------------------------------|-----------------------------------------||
[
[ guitar 2
[
[ ------------------------------------|-----------------------------------------||
[ -19-0-0-0-0-0-0-0--17-0-0-0-0-0-0-0-|-20-0-0-0--19-0-0-0--17-0-19-0-20-0-17-0-||
[ ------------------------------------|-----------------------------------------||
[ ------------------------------------|-----------------------------------------||
[ ------------------------------------|-----------------------------------------||
[ ------------------------------------|-----------------------------------------||
guitar 1
[ -15-0-0-0-0-0-0-0--14-0-0-0-0-0-0-0-|-17-0-0-0--15-0-0-0--14-0-15-0-17-0-14-0-||
[ ------------------------------------|-----------------------------------------||
[ ------------------------------------|-----------------------------------------||
[ ------------------------------------|-----------------------------------------||
[ ------------------------------------|-----------------------------------------||
[ ------------------------------------|-----------------------------------------||
[
[ guitar 2
[
[ -19-0-0-0-0-0-0-0--17-0-0-0-0-0-0-0-|-20-0-0-0--19-0-0-0--17-0-19-0-20-0-17-0-||
[ ------------------------------------|-----------------------------------------||
[ ------------------------------------|-----------------------------------------||
[ ------------------------------------|-----------------------------------------||
[ ------------------------------------|-----------------------------------------||
[ ------------------------------------|-----------------------------------------||
-15-0-0-0-0-0-0-0--14-0-0-0-0-0-0-0-|-19-0-17-0-15-0-19-0-17-0-15-0-14-0-17-0-||
------------------------------------|-----------------------------------------||
------------------------------------|-----------------------------------------||
------------------------------------|-----------------------------------------||
------------------------------------|-----------------------------------------||
------------------------------------|-----------------------------------------||
-19-0-0-0-0-0-0-0--17-0-0-0-0-0-0-0-|-22-0-21-0-19-0-22-0-21-0-19-0-17-0-19-0-||
------------------------------------|-----------------------------------------||
------------------------------------|-----------------------------------------||
------------------------------------|-----------------------------------------||
------------------------------------|-----------------------------------------||
------------------------------------|-----------------------------------------||
guitar 1
REPEAT 2X
[ ------------------------------------|-----------------------------------------||
[ -15-0-0-0-0-0-0-0--14-0-0-0-0-0-0-0-|-17-0-0-0--15-0-0-0--14-0-15-0-17-0-14-0-||
[ ------------------------------------|-----------------------------------------||
[ ------------------------------------|-----------------------------------------||
[ ------------------------------------|-----------------------------------------||
[ ------------------------------------|-----------------------------------------||
[
[ guitar 2
[
[ ------------------------------------|-----------------------------------------||
[ -19-0-0-0-0-0-0-0--17-0-0-0-0-0-0-0-|-20-0-0-0--19-0-0-0--17-0-19-0-20-0-17-0-||
[ ------------------------------------|-----------------------------------------||
[ ------------------------------------|-----------------------------------------||
[ ------------------------------------|-----------------------------------------||
[ ------------------------------------|-----------------------------------------||
PART 16
guitar 1
hold----------------------- hold------------
---------------------|----------------------------|--------------------|--------||
---------------------|----------------------------|--------------------|--------||
----------2----------|------------(2)-------------|----------4---------|--(4)---||
----------2----------|------------(2)-------------|----------4---------|--(2)---||
----------0----------|------------(0)-------------|----------2---------|--(2)---||
---------------------|----------------------------|--------------------|--------||
guitar 2
bend
---------------------|----------------------------|--------------------|--------||
---------------------|----------------------------|--------------------|--------||
---------------------|----------------9---11---12-|-11-----------------|--------||
-7---9---11---9---11-|-12---11---12---------------|------9---9---9---7-|--7^(9)-||
---------------------|----------------------------|--------------------|--------||
---------------------|----------------------------|--------------------|--------||
hold---------------------------- hold-------
---------------------------|-----------------------------|---------|------||
---------------------------|-----------------------------|---------|------||
------------2--------------|-------------(2)-------------|----7----|--(7)-||
------------2--------------|-------------(2)-------------|----7----|--(7)-||
------------0--------------|-------------(0)-------------|----5----|--(5)-||
---------------------------|-----------------------------|---------|------||
guitar 2
bend--
---------------------------|-----------------------------|---------|------||
---------------------------|-----------------------------|---------|------||
---------------------------|-10--------10---11---12---10-|-10^(11)-|--11--||
-7---9---11---12---11---12-|------12---------------------|---------|------||
---------------------------|-----------------------------|---------|------||
---------------------------|-----------------------------|---------|------||
PART 17
guitar 1 guitar 2 = crazy whammy bar action. Figure it out yourself! :)
REPEAT 3X
H H H H
----------------------------------|-----------------------------------||
----------------------------------|-----------------------------------||
----------------------------------|-----------------------------------||
----------------------------------|-----------------------------------||
-2-4-4-4-4-4-4-4--2-4-4-4-4-4-4-4-|-2-4-4-4---2-4-4-4--2-4-4-4--2-4-5-||
----------------------------------|-----------------------------------||
guitar 1 guitar 2 = more whammy! The guitar I used doesn|t have one :(
H H
----------------------------------|---------------------------------||
----------------------------------|---------------------------------||
----------------------------------|-------------------7---6---4---2-||
----------------------------------|-------------------7---6---4---2-||
-2-4-4-4-4-4-4-4--2-4-4-4-4-4-4-4-|-2-4-4-4--2-4-4-4--5---4---2---0-||
----------------------------------|---------------------------------||
PART 18
guitar 1 & 2
hold----- rake hold----- hold----- hold-----
-------2---|-(2)---X--X--|-------2---|-(2)---X--X--|-------2---|-(2)---X--X--|------2---|-(2)----------||
-------2---|-(2)---X--X--|-------2---|-(2)---X--X--|-------2---|-(2)---X--X--|--2---2---|-(2)----------||
--2----2---|-(2)---X--X--|--4----4---|-(4)---X--X--|--2----2---|-(2)---X--X--|--4---4---|-(4)--4--4--6-||
--4----4---|-(4)---X--X--|--4---(4)--|-(4)---X--X--|--4----4---|-(4)---X--X--|--4--(4)--|-(4)--4--4--6-||
--4---(4)--|-(4)---X--X--|--2---(2)--|-(2)---X--X--|--4---(4)--|-(4)---X--X--|--2--(2)--|-(2)--2--2--4-||
--2---(2)--|-(2)---X--X--|-----------|-------------|--2---(2)--|-(2)---X--X--|----------|--------------||
-------5---|-(5)---5--5--|-------5---|--5----5--5--5--|---2---|---0---|-------|-----------------||
-------5---|-(5)---5--5--|-------5---|--5----5--5--5--|---2---|---2---|-------|-----------------||
--7----7---|-(7)---7--7--|--6----6---|--6----6--6--6--|---4---|---2---|-------|-----------------||
--7---(7)--|-(7)---7--7--|--7----7---|--7----7--7--7--|---4---|---2---|---5---|-----------------||
--5---(5)--|-(5)---5--5--|--7---(7)--|--7----7--7--7--|---2---|---0---|---5---|-----------------||
-----------|-------------|--5---(5)--|--5----5--5--5--|-------|-------|---3---|-3-3-3-3-3-3-3-3-||
-----------------------|-----------------------|-----------------------|-----------------------||
-----------------------|-----------------------|-----------------------|-----------------------||
-----------------------|-----------------------|-----------------------|-----------------------||
-----4-----------------|-----4-----------------|-----4-----------------|-----------------------||
-----4---------------5-|-----4---------------5-|-----4---------------5-|-----4---------------5-||
-0-2-2--0-2-2-2--0-2-3-|-0-2-2--0-2-2-2--0-2-3-|-0-2-2--0-2-2-2--0-2-3-|-0-2-2--0-2-2-2--0-2-3-||
PART 19
guitar 1 & 2
----------------------------|--------------------------------|-------------------------------||
----------------------------|--------------------------------|-------------------------------||
----------------------------|--------------------------------|-------------------------------||
-5--------------7-----------|-9------------------------------|-5---------------7-------------||
-5--------------7-----------|-9------------------------------|-5---------------7-------------||
-3-3-3-3-3-3-3--5-5-5-5-5-5-|-7-7-7-7-7-7-7--7-7-7-7-7-7-7-7-|-3-3-3-3-3-3-3---5-5-5-5-5-5-5-||
--------------------------------|------------------------------|---------|---------||
--------------------------------|------------------------------|---------|---------||
--------------------------------|------------------------------|-7-------|----7----||
-9------------------------------|-5--------------7-------------|-7--7--9-|-5--7----||
-9------------------------------|-5--------------7-------------|-5--7--9-|-5--5--4-||
-7-7-7-7-7-7-7-7--7-7-7-7-7-7-7-|-3-3-3-3-3-3-3--5-5-5-5-5-5-5-|----5--7-|-3-------||
------------------------------|------------------------------|------------------------------||
------------------------------|------------------------------|------------------------------||
------------------------------|------------------------------|-7----------------------------||
-5--------------7-------------|-9----------------------------|-7--------------4-------------||
-5--------------7-------------|-9----------------------------|-5-5-5-5-5-5-5--4-------------||
-3-3-3-3-3-3-3--5-5-5-5-5-5-5-|-7-7-7-7-7-7-7--7-7-7-7-7-7-7-|----------------2-2-2-2-2-2-2-||
PART 20
guitar 1
------------------------------------|--------------------------------------||
------------------------------------|--------------------------------------||
------------------------------------|--------------------------------------||
-------------------4----------------|-2------------------------------------||
-2-2-2-2--5-2-2-2----2-2-2--5-2-2-2-|---0-0-0--0-0-0-0--2-2--5-5--0-0--4-4-||
------------------------------------|--------------------------------------||
guitar 1 REPEAT 3X
[ ------------------------------------|----------------------------------------||
[ ------------------------------------|----------------------------------------||
[ ------------------------------------|----------------------------------------||
[ -------------------4----------------|-2--------------------------------------||
[ -2-2-2-2--5-2-2-2----2-2-2--5-2-2-2-|---0-0-0--0-0-0-0--2-2--5-5--0-0--4-4---||
[ ------------------------------------|----------------------------------------||
[
[ guitar 2
[ ------------------------------------|----------------------------------------||
[ ------------------------------------|----------------------------------------||
[ ------------------11----------------|-9--------------------------------------||
[ -9-9-9-9-12-9-9-9----9-9-9--5-9-9-9-|---7-7-7--7-7-7-7--9-9-12-12-8-8--11-11-||
[ ------------------------------------|----------------------------------------||
[ ------------------------------------|----------------------------------------||
PART 21
guitar 1
[ -------------------|----------------------------|-------|-------------------|-------------------||
[ -------------------|----------------------------|-------|-------------------|-------------------||
[ -------------------|----------------------------|-------|-------------------|-------------------||
[ -------------------|--------------------------2-|---4---|--(4)-PICK SLIDE!--|-------------------||
[ -2-2-2-2-2-2--5--2-|-2-2-2-2-2-2-2-2-5--2--5----|-------|-------------------|-2-2-2-2-2-2--5--2-||
[ -------------------|----------------------------|-------|-------------------|-------------------||
[
[ guitar 2
[
[ -------------------|----------------------------|-------|-------------------|-------------------||
[ -------------------|----------------------------|-------|-------------------|-------------------||
[ -------------------|--------------------------9-|---11--|--(11)-PICK SLIDE!-|-------------------||
[ -9-9-9-9-9-9--12-9-|-9-9-9-9-9-9-9-9--12-9-12---|-------|-------------------|-------------------|| fin
[ -------------------|----------------------------|-------|-------------------|-9-9-9-9-9-9--12-9-||
[ -------------------|----------------------------|-------|-------------------|-------------------||




Ваше мнение



Капча