THE SAVIOUR
From Land of The Free
Tab by Squall_
[email protected]
ICQ : 32587687
That sound like it !
(if you have tab or question, email me!)
E|-------------------------------------------------------------------|
A|-------------------------------------------------------------------|
D|-------------------------------------------------------------------|
G|-------------------------------------------------------------------|
B|-------------------------------------------------------------------|
E|--5--7--8----7--5--3--0--3--5--7--5--5--7--8---7--5--3--0--7--5----|
E|-------------------------------------------------------------------|
A|-------------------------------------------------------------------|
D|-------------------------------------------------------------------|
G|-------------------------------------------------------------------|
B|--7--9--10---9--7--5--0--5--7--9--7--7--9--10--9--7--5--0--9--7----|
E|--5--7--8----7--5--3--0--3--5--7--5--5--7--8---7--5--3--0--7--5----|
E|-------------------------------------------------------------------|
A|-------------------------------------------------------------------|
D|-------------------------------------------------------------------|
G|-------------------------------------------------------------------|
B|--7--9--10---9--7--5--0--5--7--9--7--7--9--10--9--7--5--0--9--7----|
E|--5--7--8----7--5--3--0--3--5--7--5--5--7--8---7--5--3--0--7--5----|




Ваше мнение



Капча