SPACE EATER
Song: space eater
Album: Heading for tomorrow
Group: Gamma Ray
TRANSCRIBED BY YVES VERMEERSCH
ENJOY , my friends!!!
2 times
---------------------------------------|-----------------------------|
---------------------------------------|-----------------------------|
------------------9-7-----------------|-------------97-------------|
---9--9--7-/9-----7-5-----7---9---5/7-|-9-9-7-9-----75----7-9?-5-5-|
---7?-7?-5-/7--------------5---7---3/5-|-7-7-5/7------------5-7?-3-3-|
---0--0--------0-0-----0-0-------0-0-0-|-0-0-----0-0-----0-0---------|
E 3 times 4th time
------------------|----------------------|-----------------------|
------------------|----------------------|-----------------------|
------------------|----------------------|-----------------------|
------------------|----------------------|-----------------------|
--7-7-7-7-7-7-7-7-|-7-7-7-7-7-7?10/1210-|-10/12-10-7------------|
--0-0-0-0-0-0-0-0-|-0-0-0-0-0-0----------|------------/7-5-2-----|
verse
----------------|-----------------|-----------------------------------|
----------------|-----------------|-----------------------------------|
----------------|-----------------|-----------------------------------|
--9-------------|-(9)-------------|-5---------------------------------|
--7-------------|-(7)-------------|-3---------------------------------|
--0-------------|-(0)-------------|-----------------------------------|
You know who I am.... I got no time for wasting all my day
-------------------------------------|
-------------------------------------|
-------------------------------------|
--4----------------------------2-2---| I dont know if this chords are
--2----------------------------0-0---| correct
-------------------------------------|
come on and follow, follow me away
CHORUS 2 times
---------------------------------------|-----------------------------|
---------------------------------------|-----------------------------|
------------------9-7-----------------|-------------97-------------|
---9--9--7-/9-----7-5-----7---9---5/7-|-9-9-7-9-----75----7-9?-5-5-|
---7?-7?-5-/7--------------5---7---3/5-|-7-7-5/7------------5-7?-3-3-|
---0--0--------0-0-----0-0-------0-0-0-|-0-0-----0-0-----0-0---------|
E 3 times 4th time
------------------|----------------------|-----------------------|
------------------|----------------------|-----------------------|
------------------|----------------------|-----------------------|
------------------|----------------------|-----------------------|
--7-7-7-7-7-7-7-7-|-7-7-7-7-7-7?10/1210-|-10/12-10-7------------|
--0-0-0-0-0-0-0-0-|-0-0-0-0-0-0----------|------------/7-5-2-----|
verse
----------------|-----------------|-----------------------------------|
----------------|-----------------|-----------------------------------|
----------------|-----------------|-----------------------------------|
--9-------------|-(9)-------------|-5---------------------------------|
--7-------------|-(7)-------------|-3---------------------------------|
--0-------------|-(0)-------------|-----------------------------------|
I'll make you happy.... I got no time...
-------------------------------------|
-------------------------------------|
-------------------------------------|
--4----------------------------2-2---| I dont know if this chords are
--2----------------------------0-0---| correct
-------------------------------------|
come on and follow, follow me away_________________
CHORUS
2 times
---------------------------------------|-----------------------------|
---------------------------------------|-----------------------------|
------------------9-7-----------------|-------------97-------------|
---9--9--7-/9-----7-5-----7---9---5/7-|-9-9-7-9-----75----7-9?-5-5-|
---7?-7?-5-/7--------------5---7---3/5-|-7-7-5/7------------5-7?-3-3-|
---0--0--------0-0-----0-0-------0-0-0-|-0-0-----0-0-----0-0---------|
SPACE________________________EATER
---------------------------------------------------------------|
---------------------------------------------------------------|
---------------------------------------------------------------|
---------------------------------------------------------------|
-7/9-9-9-9-129-9-9-9-7/9-9-9-9-129-9-9-9-2/4-4-4-4-74-4-4-4-|
-5/7-7-7-7-107-7-7-7-5/7-7-7-7-107-7-7-7-0/2-2-2-2-52-2-2-2-|
A little bit a little bit ... you're drownin...
--------------------------| this is a syncopation part with
--------------------------| upstrokes
--------------------------|
--------------------------|
-7/9-9-9-9-129-9-9-9-----|
-5/7-7-7-7-107-7-7-7-----|
be superman or wondergirl
rake strings
------------------------------------|----------------------------------|
------------------------------------|----------------------------------|
------------------------------------|----------------------------------|
-9------7---------5--------4------7-|-9-------7--------5-------x--x----|
-7------5---------3--------2------5-|-7-------5--------3-------x--x----|
-0----------------------------------|-0--------------------------------|
Oh we fly away on supersonic dreams, we ride on universal starshine
Rhythm during solo 4 times dive with bar to E
--------------------------------------------|------------------------|
--------------------------------------------|-----------------------|
--------------------------------------------|-2---(2)---------------|
--------------------------------------------|-2---(2)--------------?|
-7/9-9-9-9-129-9-9-9-7/9-9-9-9-5-(5)-7-7-7-|-0---(0)-----------?---|
-5/7-7-7-7-107-7-7-7-5/7-7-7-7-3-(3)-5-5-5-|------------------------|
G A E 4 times 2 times
-3-----0-----0-----|---------------------|-------------|-------------|
-0-----1-----0-----|---------------------|-------------|-------------|
-0-----2-----0-----|---------------------|-------------|-------------|
-0-----2-----2-----|-7/9-9-9-9-7/9-9-9-9-|-5-----------|-4-----------|
-2-----0-----2-----|-5/7-7-7-7-5/7-7-7-7-|-3-----------|-2-----------|
-3-----------0-----|---------------------|-------------|-------------|
4th time with distortion I got no time...come on and...
sounds effects
--------------------------------|----------------------------------|
--------------------------------|----------------------------------|
--------------------------------|----------------------------------|
-9-9-7/9----7/9-----7/9-----7/9-|-5-5-4/5-----4/5-----4/5----4/5---|
-7-7-5/7----5/7-----5/7-----5/7-|-3-3-2/3-----2/3-----2/3----2/3---|
---------0-0----0-0-----0-0-----|---------0-0-----0-0-----0-0------|
space_______________________eater__




Ваше мнение



Капча