Band : Gamma Ray
Album: POWER PLANT
Song : Short as hell
[ Lyrics & Music by Dan Zimmermann ]
[Transcripted by LX - 02/2001 ]
INTRO
^ = bend 1/2 ton
e|.-------.-------.-------.------|.-------.-------.-------.-------|
B|-------------------------------|--------------------------------|
G|-------------------------------|--------------------------------|
D|--|---|---|---|---|---|---|----|--|---|---|---|---|---|---|-|-|-|
A|.-7-.-5-.-7-.-8-.-7-.-5-.-7-|-||.-7-.-5-.-7-.-8-.-7-.-5-.-8-7-5-|
E|0---0---0---0---0---0---0---5^3|0---0---0---0---0---0---0-6-5-3-|
e|.-------.-------.-------.------|.-------.-------.-------.-------|
B|-------------------------------|--------------------------------|
G|-------------------------------|--------------------------------|
D|--|---|---|---|---|---|---|----|--|---|---|---|---|---|---|-|-|-|
A|.-7-.-5-.-7-.-8-.-7-.-5-.-7-|-||.-7-.-5-.-7-..8-.-7-.-5h7-8-7-5-|
E|0---0---0---0---0---0---0---5^3|0---0---0---00--0---0-----6-5-3-|
RIFF
A complex riff with alternate figures!! It is played like this...
e|.-------.-------.-------.------|.-------.-------.-------.-------|
B|-------------------------------|--------------------------------|
G|----------------------------|-||------------------|-|-|-|-|-|-|-|
D|----------------------|-|-|-2-4|------------------6-5-4-5-6-9-11|
A|--|-|-|---|---|---|---2-3-4----|--|-|-|---|-|-|-|-4-3-2-3-4-7-9-|
E|022-2-2-322-022-322-25---------|022-2-2-522-2-2-2---------------|
P.M.[..............................................]




Ваше мнение



Капча