Band : Gamma Ray
Album: POWER PLANT
Song : Send me a sign
Music & Lyric by Henjo Richter
Transcripted by LX
Tunning : down 1/2 step
Enjoy the tab of this wondeful song taken from the album Powerplant...
INTRO
The intro is played with 4 guitars :
- Guit.1 play the main melody ;
- Guit.4 play the chords ;
- Guit.2 & 3 play a part that you can hear in the refrain too.
To play guit.2& 3, you must use front/back picking, of course!
Guit.1
e|--------------------------------|--------------------------------|
B|------12--11--------------------|10~------10----10~-----12-10----|
G|9~--9---9---9-12-9~------9-11-12|------12----12---------------12-|
D|--------------------------------|--------------------------------|
A|--------------------------------|--------------------------------|
E|--------------------------------|--------------------------------|
||Guit.2
e|15--15--14--15--15--15--14--15--|14--14--12--14--12--12--10--12--|
B|--12--12--12--12--12--12--12--10|--10--10--10--10--10--10--10--10|
G|--------------------------------|--------------------------------|
D|--------------------------------|--------------------------------|
A|--------------------------------|--------------------------------|
E|--------------------------------|--------------------------------|
||Guit.3
e|19--19--17--19--20--20--20--19--|17--17--15--17--17--17--15--17--|
B|--17--17--17--17--17--17--17--17|--15--15--15--15--15--15--15--15|
G|--------------------------------|--------------------------------|
D|--------------------------------|--------------------------------|
A|--------------------------------|--------------------------------|
E|--------------------------------|--------------------------------|
||Guit.4
e|.-------.-------.-------.-------|.-------.-------.-------.-------|
B||---------------|---------------||-------------------------------|
G|9---------------5---------------|7-------------------|-------|---|
D|9---------------5---------------|7-------------------7-------7---|
A|7---------------3---------------|5-------------------7-------7---|
E|--------------------------------|----------------5-5-5---5-5-5---|
P.M.[...] [...]
Guit.1
e|--------------------------------|--------------------------------|
B|------12--11-----------------10-|12~-----13~-----10--------------|
G|9~--9--9----9-12--9~----9-12----|--------------------12--11--12--|
D|--------------------------------|--------------------------------|
A|--------------------------------|--------------------------------|
E|--------------------------------|--------------------------------|
||Guit.2
e|15--15--14--15--15--15--14--15--|19--19--17--15--14--17--15--14--|
B|--12--12--12--12--12--12--12--12|--15--15--15--15--15--15--15--15|
G|--------------------------------|--------------------------------|
D|--------------------------------|--------------------------------|
A|--------------------------------|--------------------------------|
E|--------------------------------|--------------------------------|
||Guit.3
e|19--19--17--19--20--20--19--20--|22--22--20--19--17--20--19--17--|
B|--17--17--17--17--17--17--17--17|--20--20--20--20--20--20--20--20|
G|--------------------------------|--------------------------------|
D|--------------------------------|--------------------------------|
A|--------------------------------|--------------------------------|
E|--------------------------------|--------------------------------|
||Guit.4
e|.-------.-------.-------.-------|.-------.-------.-------.-------|
B||---------------|---------------|--------------------|--------|--|
G|9---------------5---------------||-------------------7-------7---|
D|9---------------5---------------|5-------------------7-------7---|
A|7---------------3---------------|5---------------5-5-5---5-5-5---|
E|--------------------------------|3-------------------------------|
P.M.[...] [...]
Guit.1
e|--------------------------------|--------------------------------|
B|------12--11--------------------|10~------10----10~-----12-10----|
G|9~--9---9---9-12-9~------9-10-11|------12----12---------------12-|
D|--------------------------------|--------------------------------|
A|--------------------------------|--------------------------------|
E|--------------------------------|--------------------------------|
||Guit.2
e|15--15--14--15--15--15--14--15--|14--14--12--14--12--12--10--12--|
B|--12--12--12--12--12--12--12--10|--10--10--10--10--10--10--10--10|
G|--------------------------------|--------------------------------|
D|--------------------------------|--------------------------------|
A|--------------------------------|--------------------------------|
E|--------------------------------|--------------------------------|
||Guit.3
e|19--19--17--19--20--20--20--19--|17--17--15--17--17--17--15--17--|
B|--17--17--17--17--17--17--17--17|--15--15--15--15--15--15--15--15|
G|--------------------------------|--------------------------------|
D|--------------------------------|--------------------------------|
A|--------------------------------|--------------------------------|
E|--------------------------------|--------------------------------|
||Guit.4
e|.-------.-------.-------.-------|.-------.-------.-------.-------|
B||---------------|---------------||-------------------------------|
G|9---------------5---------------|7-------------------|-------|---|
D|9---------------5---------------|7-------------------7-------7---|
A|7---------------3---------------|5-------------------7-------7---|
E|--------------------------------|----------------5-5-5---5-5-5---|
P.M.[...] [...]
Guit.1
e|--------------------------------|--------------------------------|
B|------12--11-----------------10-|12~-----13~-----10~~-----------|
G|9~--9--9---9-12--9~----9--12----|--------------------------------|
D|--------------------------------|--------------------------------|
A|--------------------------------|--------------------------------|
E|--------------------------------|--------------------------------|
||Guit.2
e|15--15--14--15--15--15--14--15--|19--19--17--15--14~~-----------|
B|--12--12--12--12--12--12--12--12|--15--15--15--15----------------|
G|--------------------------------|--------------------------------|
D|--------------------------------|--------------------------------|
A|--------------------------------|--------------------------------|
E|--------------------------------|--------------------------------|
||Guit.3
e|19--19--17--19--20--20--19--20--|22--22--20--19--17~~-----------|
B|--17--17--17--17--17--17--17--17|--20--20--20--20----------------|
G|--------------------------------|--------------------------------|
D|--------------------------------|--------------------------------|
A|--------------------------------|--------------------------------|
E|--------------------------------|--------------------------------|
||Guit.4
e|.-------.-------.-------.-------|.-------.-------.-------.-------|
B||---------------|---------------|----------------|---------------|
G|9---------------5---------------||---------------7---------------|
D|9---------------5---------------|5---------------7---------------|
A|7---------------3---------------|5---------------5---------------|
E|--------------------------------|3-------------------------------|

BASS
BASS
G|--------------------------------|--------------------------------|
D|--------------------------------|--------------------------------|
A|----------------%---------------|----------------%---------------|
E|--------------------------------|--------------------------------|

COUPLET
Strangly, Kai and Henjo don't play this part at the same frets.
Here is the part played by Henjo, but you can play the chords where
you want...
On a storytellers night He spoke his words of wisdom The
e|.-------.-------.-------.-------|.-------.-------.-------.-------|
B||---------------|---------------||---------------|---------------|
G|4---------------7---------------|2---------------4---------------|
D|4---------------7---------------|2---------------4---------------|
A|2---------------5---------------|0---------------2---------------|
E|--------------------------------|--------------------------------|
tales he told from far beyond That no one understood
e|.-------.-------.-------.-------|.-------.-------.-------.-------|
B||---------------|---------------|--------------------------------|
G|4---------------7---------------||-------------------|-----------|
D|4---------------7---------------|7-------------------4-----------|
A|2---------------5---------------|7-------------------4-----------|
E|--------------------------------|5---------------2-2-2-----------|
P.M.[...]

BRIDGE
Here come this bridge in the studio version...
Live, Henjo play guit.1 and Kai play guit.3 with palme muted chords.
All this part is played P.M.
He had the gift of prophecy He wove a web of mystery
Guit.1
e|.-------.-------.-------.-------|.-------.-------.-------.-------|
B||-------|-----------------------|--------|---------------|-------|
G|4-7-6-7-4-7-6-4-|-6-4-6-|-6-4-6-||-9-7-9-6-9-7-6-|-9-7-9-6-9-7-6-|
D|----------------7-------7-------|7---------------9---------------|
A|--------------------------------|--------------------------------|
E|--------------------------------|--------------------------------|
||Guit.2 (P.M.>> >>)
e|.-------.-------.-------.-------|.-------.-------.-------.-------|
B|--------------------------------|--------------------------------|
G||-------|-----------------------|--------|---------------|-------|
D|5-9-7-9-5-9-7-5-|-7-5-7-|-7-5-7-||-119-117-119-11|-119-117-119-7-|
A|----------------9-------9-------|9---------------11--------------|
E|--------------------------------|--------------------------------|
A thousand lifes shone gracious in his eyes Send me a
Guit.1
e|.-------.-------.-------.-------|.-------.-------.-------.-------|
B||-------|---------------|-------|--------|-------|---------------|
G|4-7-6-7-4-7-6-4-|-7-6-7-4-7-6-4-||-9-7-9-6-9-7-6-6---------------|
D|----------------7---------------|7---------------H---------------|
A|--------------------------------|--------------------------------|
E|--------------------------------|--------------------------------|
||Guit.2 (P.M.>> >>)
e|.-------.-------.-------.-------|.-------.-------.-------.-------|
B|--------------------------------|--------------------------------|
G||-------|---------------|-------|--------|-------|---------------|
D|5-9-7-9-5-9-7-5-|-9-7-9-5-9-7-5-||-119-117-119-7-7---------------|
A|----------------9---------------|9---------------H---------------|
E|--------------------------------|--------------------------------|

REFRAIN
sign ! For too long you kept me waiting. Send me a
e|.-------.-------.-------.-------|.-------.-------.-------.-------|
B|--------------------------------|--------------------|-------|---|
G||---------------|---------------||-------------------9-------9---|
D|9---------------5---------------|7-------------------9-------9---|
A|9---------------5---------------|7-------------------7-------7---|
E|7---------------3---------------|5---------------0-0-----0-0-----|
P.M.[...] [...]
sign ! From the eternal skies. Send me a
e|.-------.-------.-------.-------|.-------.-------.-------.-------|
B|--------------------------------||-------------------------------|
G||---------------|---------------|7-------------------|-------|---|
D|9---------------5---------------|7-------------------7-------7---|
A|9---------------5---------------|5-------------------7-------7---|
E|7---------------3---------------|----------------5-5-5---5-5-5---|
P.M.[...] [...]
sign ! Send me a
Guit.1**
e|15--15--14--15--15--15--14--15--|14--14--12--14--12--12--10--12--|
B|--12--12--12--12--12--12--12--10|--10--10--10--10--10--10--10--10|
G|--------------------------------|--------------------------------|
D|--------------------------------|--------------------------------|
A|--------------------------------|--------------------------------|
E|--------------------------------|--------------------------------|
||Guit.2
e|19--19--17--19--20--20--20--19--|17--17--15--17--17--17--15--17--|
B|--17--17--17--17--17--17--17--17|--15--15--15--15--15--15--15--15|
G|--------------------------------|--------------------------------|
D|--------------------------------|--------------------------------|
A|--------------------------------|--------------------------------|
E|--------------------------------|--------------------------------|
||Guit.3
e|.-------.-------.-------.-------|.-------.-------.-------.-------|
B||---------------|---------------||-------------------------------|
G|9---------------5---------------|7-------------------|-------|---|
D|9---------------5---------------|7-------------------7-------7---|
A|7---------------3---------------|5-------------------7-------7---|
E|--------------------------------|----------------5-5-5---5-5-5---|
P.M.[...] [...]
sign !
Guit.1
e|15--15--14--15--15--15--14--15--|19--19--17--15--14~~-----------|
B|--12--12--12--12--12--12--12--12|--15--15--15--15----------------|
G|--------------------------------|--------------------------------|
D|--------------------------------|--------------------------------|
A|--------------------------------|--------------------------------|
E|--------------------------------|--------------------------------|
||Guit.2
e|19--19--17--19--20--20--19--20--|22--22--20--19--17~~-----------|
B|--17--17--17--17--17--17--17--17|--20--20--20--20----------------|
G|--------------------------------|--------------------------------|
D|--------------------------------|--------------------------------|
A|--------------------------------|--------------------------------|
E|--------------------------------|--------------------------------|
||Guit.3
e|.-------.-------.-------.-------|.-------.-------.-------.-------|
B||---------------|---------------|----------------|---------------|
G|9---------------5---------------||---------------7---------------|
D|9---------------5---------------|5---------------7---------------|
A|7---------------3---------------|5---------------5---------------|
E|--------------------------------|3-------------------------------|
BASS
COUPLET (2)
BRIDGE (2)
...END REFRAIN (2)
Guit.1 & 2
e|.-------.-------.-------.-------|
B|--------------------------------|
G|--------------------------------|
D|------------4-5-------------6-7-|
A|------3-5-7-----------5-7-9-----|
E|3-5-7-----------5-7-9-----------|
P.M.>> >>
SOLOS
...
BRIDGE (3)
REFRAIN (3)
END.




Ваше мнение



Капча