Band : Gamma Ray
Album: LAND OF THE FREE
Song : REBELLION IN DREAMLAND
[Words&Music by Kai Hansen]
(send your bar's corrections to LX)
Notations :
p.m... : palm muting
h : hammer-on
p : pull-off
^ : bend
^> : bend and release
/ = slide-up
= slide-down
~ = vibrato
tr~ = trill
# = tremolo-picking
t = tap-on
> = accentuate
[H] = natural harmonic
[h.] = pick harmonic
% = repeat the same bar

INTRO
No doubts for the intro, it's saw live by Kai and it's played like this...
e|---------------------------------------------|
B|---------------------------------------------|
G|---------------------------------------------|
D|-----------------------------9~--7h9p7-------|
A|----10---9-10-9h10p9-7---7-10----------10-9--|
E|0------0---------------8---------------------|
e|---------------------------------------------|
B|---------------------------------------------|
G|---------------------------------------------|
D|-------------------------------9~--7h9p7-----|
A|----10---9-10-9h10p9-7---7-10-----------10-9-|
E|0------0---------------8~--------------------|
e|---------------------------------------------|--------|------------------|---|-|
B|---------------------------------------------|----|---7---|-------|------5---7-|
G|---------------------------------------------|--|-7-|---|-7-|---|-4------5---7-|
D|------------------------------9~--7h9p7------||-7---7---7---7-|-4-----|----|---|
A|----10---9-10-9h10p9-7---7-10-----------10-9-|5---------------2-------3----5---|
E|0-------0---------------8--------------------|---------------------------------|
...............................
e|.-------.-------.-------.-------.-------.-------.-------.-------|
B|----------------------------------------------------------------|
G|----97-97-9-----------4---5---7-----------4---5-------7-------|
D|----97-97-9-----------4-°-5-°-7-----------4---5-------7-------|
A|----75-75-7-----------2---3---5-----------2---3-------5-------|
E|0---------------------------------------------------------------|
e|.-------.-------.-------.-------.-------.-------.-------.-------|
B|----------------------------------------------------------------|
G|----97-97-9-----------4---5---7-----------4---5-------7-------|
D|----97-97-9-----------4-°-5-°-7-----------4---5-------7-------|
A|----75-75-7-----------2---3---5-----------2---3-------5-------|
E|0---------------------------------------------------------------|
e|.-------.-------.-------.-------.-------.-------.-------.-------|
B|----------------------------------------------------------------|
G|----97-97-9-----------4---5(4)7-----------4---5-------7-------|
D|----97-97-9-----------4-°-5-°-7-----------4---5-------7-------|
A|----75-75-7-----------2---3---5-----------2---3-------5-------|
E|0---------------------------------------------------------------|
Freedom for us all ! And I
e|.-------.-------.-------.-------.-------.-------.-------.-------|
B|----------------------------------------------------------------|
G|----97-97-9-----------4---5---7-----------4---5-------7-------|
D|----97-97-9-----------4-°-5-°-7-----------4---5-------7-------|
A|----75-75-7-----------2---3---5-----------2---3-------5-------|
E|0---------------------------------------------------------------|
RIFF1
wonder why, why my heart sill yearns And I
e|.-------.-------.-------.-------.-------.-------.-------.-------|
B|----------------------------------------------------------------|
G|--------------------------------5---------------7-7-------------|
D|7/9-----97-7---7/9-95-9-------5-------5-------7°7-----5p4-----|
A|5/7-----75-5---5/7-77-7-------3-------5-------5°5---------5---|
E|----0-0-------7-------------0-0---------3---------------------0-|
P.M. [...] [.] [...] [.]
wonder why, why the earth sill turns And I
e|.-------.-------.-------.-------.-------.-------.-------.-------|
B|----------------------------------------------------------------|
G|--------------------------------5---------------7-7-------------|
D|7/9-----97-7---7/9-95-9-------5-------5-------7°7-----5p4-----|
A|5/7-----75-5---5/7-77-7-------3-------5-------5°5---------5---|
E|----0-0-------7-------------0-0---------3---------------------0-|
P.M. [...] [.] [...] [.]
wonder why, why the sky turns black Still I
e|.-------.-------.-------.-------.-------.-------.-------.-------|
B|----------------------------------------------------------------|
G|--------------------------------5---------------7-7-------------|
D|7/9-----97-7---7/9-95-9-------5-------5-------7°7-----5p4-----|
A|5/7-----75-5---5/7-77-7-------3-------5-------5°5---------5---|
E|----0-0-------7-------------0-0---------3---------------------0-|
P.M. [...] [.] [...] [.]
wonder why, but there is no turn -ing
e|.-------.-------.-------.-------.-------.-------.-------.-------|
B|----------------------------------------------------------------|
G|--------------------------------5---------------7-7-------------|
D|7/9-----97-7---7/9-95-9-------5-------5-------7°7-----5p4-----|
A|5/7-----75-5---5/7-77-7-------3-------5-------5°5---------5~--|
E|----0-0-------7-------------0-0---------3-----------------------|
P.M. [...] [.] [...]
back
e|.-------.-------.-------.-------.-------.-------.-------.-------|
B|--------------------------guit2-7-----------------------7-------|
G|----------------------------------------7-----------------------|
D|2-----------------------------------------------9---------------|
A|2---------------------------------------------------------------|
E|0------------------------------------pick scrach¤¤¤¤¤¤¤¤¤¤¤¤¤¤¤¤|
BRIDGE
for all e- ter- ni- ty
e|.-------.-------.-------.-------.-------.-------.-------.-------|
B|----------------------------------------------------------------|
G|9-------------------------------7-------------------------------|
D|9-------------------------------7-------------------------------|
A|7-------------------------------5-------------------------------|
E|0---------------------------------------------------------------|
for all the world to see
e|.-------.-------.-------.-------.-------.-------.-------.-------|
B|----------------------------------------------------------------|
G|9-------------------------------7-------------------------------|
D|9-------------------------------7-------------------------------|
A|7-------------------------------5-------------------------------|
E|----------------------------------------------------------------|
we're riding high across the
e|.-------.-------.-------.-------.-------.-------.-------.-------|
B|----------------------------------------------------------------|
G|5-------------------------------7-------------------------------|
D|5-------------------------------7-------------------------------|
A|3-------------------------------5-------------------------------|
E|----------------------------------------------------------------|
wind
e|.-------.-------.-------.-------.-------.-------.-------.-------|
B|--------------------------------------------101012121010--------|
G|9-------------------------------999911111212------------12121111|
D|9-------------------------------------------777799997777--------|
A|7-------------------------------777799991010------------10109999|
E|----------------------------------------------------------------|
and when the storm begins
e|.-------.-------.-------.-------.-------.-------.-------.-------|
B|----------------------------------------------------------------|
G|9-------------------------------7-------------------------------|
D|9-------------------------------7-------------------------------|
A|7-------------------------------5-------------------------------|
E|----------------------------------------------------------------|
to wash a- way all sins
e|.-------.-------.-------.-------.-------.-------.-------.-------|
B|----------------------------------------------------------------|
G|9-------------------------------7-------------------------------|
D|9-------------------------------7-------------------------------|
A|7-------------------------------5-------------------------------|
E|----------------------------------------------------------------|
we'll find a place where will be-
e|.-------.-------.-------.-------.-------.-------.-------.-------|
B|----------------------------------------------------------------|
G|5-------------------------------7-------------------------------|
D|5-------------------------------7-------------------------------|
A|3-------------------------------5-------------------------------|
E|----------------------------------------------------------------|
-gin
e|.-------.-------.-------.-------.-------.-------.-------.-------|
B|--------------------------------------------101012121010--------|
G|9-------------------------------999911111212------------12121111|
D|9-------------------------------------------777799997777--------|
A|7-------9-------10------12------777799991010------------10109999|
E|0---------------------------------------------------------------|
There's something wrong with the world today
e|.-------.-------.-------.-------.-------.-------.-------.-------|
B|----------------------------------------------------------------|
G|----------------------------------------------------------------|
D|2-/-4-----------2--4-----------7--4---------------------------|
A|0-h-2---2---2---0-h-2---2---2---5--2---2---------------2---3---|
E|--------------------------------------------2---3---5-----------|
P.M. [.....] [.....] [......................]
only the people that are fighting for...
e|.-------.-------.-------.-------.-------.-------.-------.-------|
B|----------------------------------------------------------------|
G|--------------------------------2---2---------------------------|
D|2-/-4-----------7--4-----------2---2-----------5---5---5---5---|
A|0-h-2---2---2---5--2---2---2---0---0-----------5---5---5---5---|
E|------------------------------------------------3---3---3---3---|
P.M. [.....] [.....]
...a better place in the world today,
e|.-------.-------.-------.-------.-------.-------.-------.-------|
B|----------------------------------------------------------------|
G|----------------------------------------------------------------|
D|2-/-4-----------2--4-----------7--4---------------------------|
A|0-h-2---2---2---0-h-2---2---2---5--2---2---------------2---3---|
E|--------------------------------------------2---3---5-----------|
P.M. [.....] [.....] [......................]
they don’t believe that they've gone too far, they’re
e|.-------.-------.-------.-------.-------.-------.-------.-------|
B|----------------------------------------------------------------|
G|----------------------------------------7-----------------------|
D|2-/-4-----------7--4----------5--------7-------7---------------|
A|0-h-2---2---2---5--2---2------5--------5-------7---------------|
E|-------------------------------3----------------5---------------|
P.M. [.....] [.....]
CHORUS
fall- ing down. By moon- light
e|.-------.-------.-------.-------.-------.-------.-------.-------|
B|----------------------------------------------------------------|
G|----------------------------------------------------------------|
D|5-------7-------9-----------------------12------14------12------|
A|5-------7-------9-----------------------12------14------12------|
E|3-------5-------7-----------------------10------12------10------|
there’s a way- for rebel-
e|.-------.-------.-------.-------.-------.-------.-------.-------|
B|----------------------------------------------------------------|
G|----------------------------------------------------------------|
D|11------7-------9-------------------------------5---------------|
A|11------7-------9-------------------------------5---------------|
E|9-------5-------7-------------------------------3---------------|
-lion. Here, the world has
e|.-------.-------.-------.-------.-------.-------.-------.-------|
B|----------------------------------------------------------------|
G|----------------------------------------------------------------|
D|7---------------9-----------------------12------14------12------|
A|7---------------9-----------------------12------14------12------|
E|5---------------7-----------------------10------12------10------|
gone a- stray for rebel-
e|.-------.-------.-------.-------.-------.-------.-------.-------|
B|----------------------------------------------------------------|
G|----------------------------------------------------------------|
D|11------7-------9-------------------------------5---------------|
A|11------7-------9-------------------------------5---------------|
E|9-------5-------7-------------------------------3---------------|
-lion. Now, the time has
e|.-------.-------.-------.-------.-------.-------.-------.-------|
B|----------------------------------------------------------------|
G|----------------------------------------------------------------|
D|7---------------9-----------------------12------14------12------|
A|7---------------9-----------------------12------14------12------|
E|5---------------7-----------------------10------12------10------|
come to pray hallelu-
e|.-------.-------.-------.-------.-------.-------.-------.-------|
B|----------------------------------------------------------------|
G|----------------------------------------------------------------|
D|11------7-------9-------------------------------5---------------|
A|11------7-------9-------------------------------5---------------|
E|9-------5-------7-------------------------------3---------------|
-yah. Deep, in side our
e|.-------.-------.-------.-------.-------.-------.-------.-------|
B|----------------------------------------------------------------|
G|----------------------------------------------------------------|
D|7---------------9-----------------------12------14------12------|
A|7---------------9-----------------------12------14------12------|
E|5---------------7-----------------------10------12------10------|
mind we wait... for rebel-
e|.-------.-------.-------.-------.-------.-------.-------.-------|
B|----------------------------------------------------------------|
G|----------------------------------------------------------------|
D|11------7-------9-------------------------------5---------------|
A|11------7-------9-------------------------------5---------------|
E|9-------5-------7-------------------------------3---------------|
-lion. Here, in dream- land
e|.-------.-------.-------.-------.-------.-------.-------.-------|
B|----------------------------------------------------------------|
G|----------------7-----------------------11------12------11------|
D|7---------------7-----------------------11------12------11------|
A|7---------------5-----------------------9-------10------9-------|
E|5---------------------------------------------------------------|
we will not obey... the
e|.-------.-------.-------.-------.-------.-------.-------.-------|.|.|
B|----------------------------------------------------------------|-|-|
G|9-------7-------5-------------------------------7---------------|-|-|
D|9-------7-------5-------------------------------7---------------|-|-|
A|7-------5-------3-------------------------------5---------------|-|-|
E|----------------------------------------------------------------|-|-|
RIFF
master why the earth sill turns But I
e|.-------.-------.-------.-------.-------.-------.-------.-------|
B|----------------------------------------------------------------|
G|--------------------------------5---------------7-7-------------|
D|7/9-----97-7---7/9-95-9-------5-------5-------7°7-----5p4-----|
A|5/7-----75-5---5/7-77-7-------3-------5-------5°5---------5---|
E|----0-0-------7-------------0-0---------3---------------------0-|
P.M. [...] [.] [...] [.]
on my way as my earth sill yearns I'm
e|.-------.-------.-------.-------.-------.-------.-------.-------|
B|----------------------------------------------------------------|
G|--------------------------------5---------------7-7-------------|
D|7/9-----97-7---7/9-95-9-------5-------5-------7°7-----5p4-----|
A|5/7-----75-5---5/7-77-7-------3-------5-------5°5---------5---|
E|----0-0-------7-------------0-0---------3---------------------0-|
P.M. [...] [.] [...] [.]
on my way and I cry for more Yes I'm
e|.-------.-------.-------.-------.-------.-------.-------.-------|
B|----------------------------------------------------------------|
G|--------------------------------5---------------7-7-------------|
D|7/9-----97-7---7/9-95-9-------5-------5-------7°7-----5p4-----|
A|5/7-----75-5---5/7-77-7-------3-------5-------5°5---------5---|
E|----0-0-------7-------------0-0---------3---------------------0-|
P.M. [...] [.] [...] [.]
on my way gonna find the se- cret
e|.-------.-------.-------.-------.-------.-------.-------.-------|
B|----------------------------------------------------------------|
G|--------------------------------5---------------7---------------|
D|7/9-----97-7---7/9-95-9-------5-------5-------7-------7---5---|
A|5/7-----75-5---5/7-77-7-------3-------5-------5-------7---5---|
E|----0-0-------7-------------0-0---------3---------------5---3---|
P.M. [...] [.] [...]
wall!
e|-------------------------------------------------------------------|
B|-------------------------------------------------------------------|
G|>----->---------->----->---------->----->---------->----->---------|
D|2-----2------hp--2-----2------hp--2-----2------hp--2-----2------hp-|
A|2-----2-----232--2-----2-----232--2-----2-----232--2-----2-----232-|
E|--0-0---0-0----0---0-0---0-0----0---0-0---0-0----0---0-0---0-0----0|
P.M[...] [...] [.] [...] [...] [.] [...] [...] [.] [...] [...] [.]
e|.-------.-------.-------.-------.-------.-------.-------.--------|
B|-----------------------------------------------------------------|
G|5---------------7--------------->----->---------->----->---------|
D|5-------5-------7-------7---5---2-----2------hp--2-----2------hp-|
A|3-------5-------5-------7---5---2-----2-----232--2-----2-----232-|
E|--------3---------------5---3-----0-0---0-0----0---0-0---0-0----0|
P.M. [...] [...] [.] [...] [...] [.]

e|.-------.-------.-------.-------.-------.-------.-------.--------|
B|-----------------------------------------------------------------|
G|5---------------7-----------8------------------------------------|
D|5-------5-------7---7---9---8------------------------------------|
A|3-------5-------5---7---9---6------------------------------------|
E|--------3-----------5---7-------0-000-0-000-000-0-000-0-000-000-0|
P.M.[.................................]
I have seen the secret dreams of those who know eternity and makes me feel
e|.-------.-------.-------.-------.-------.-------.-------.--------|
B|-----------------------------------------------------------------|
G|-----------------------------------------------------------------|
D|-----------------------------------------------------------------|
A|-----------------------------------------------------------------|
E|-000-0-000-000-0-000-0-000-000-0-000-0-000-000-0-000-0-000-000-0-|
P.M.[..............................................................]
like a shadow sneaking in
e|.-------.-------.-------.-------.-------.-------.-------.---------|
B|------------------------------------------------------------------|
G|------------------------------------------------------------------|
D|----------------------------------------------9-7-----------------|
A|---------------------------------------7-8-10-----10-8-7-10-8-7---|
E|-000-0-000-000-0-000-0-000-000-0-000-0--------------------------10|
P.M.[..............................................................]
In my sleep I’m searching for a way to find the open
e|.-------.-------.-------.-------.-------.-------.-------.--------|
B|-----------------------------------------------------------------|
G|-----------------------------------------------------------------|
D|-----------------------------------------------------------------|
A|-----------------------------------------------------------------|
E|0-000-0-000-000-0-000-0-000-000-0-000-0-000-000-0-000-0-000-000-0|
P.M.[..............................................................]
door leading me to where it all begins
e|.-------.-------.-------.-------.-------.-------.-------.--------|
B|-----------------------------------------------------------------|
G|-----------------------------------------------------------------|
D|-----------------------------------------------------------------|
A|-----------------------------------------------------------------|
E|-000-0-000-000-0-000-0-000-000-0-000-0-000-000-0-000-0-000-000-0-|
P.M.[..............................................................]
e|.-------.-------.-------.-------.-------.-------.----------|
B|-----------------------------------------------------------|
G|-----------------------------------------------------------|
D|------------------------------9-7--------------------------|
A|-----------------------7-8-10-----10-8-7-10-8-7----9-7-----|
E|-000-0-000-000-0-000-0--------------------------10-----10-8|
P.M.[........................................................]
RIFF




Ваше мнение



Капча