From: Peter Pettersson
Transcription of Gamma ray - One with the world.
Riff 1a:
E --------3-------
H --------3-------
G 4---2-4-4-------
D 4---2-4-5-------
A 2---0-2-5-------
E --------3-------
Riff 1b:
E ----------------
H ----------------
G ----7------9----
D 7---7-7----9----
A 5---5-7----9----
E 5-----5-4567----
Riff 2a: Do you think...
E ---------------------------------
H ---------------------------------
G 444...---------------------------
D 444...----------444...2-5-2-4--44
A 222.*)----------444...2-5-2-4--44
E ----------------222...0-3-0-2--22
*) pump this chord 24 times...
Riff 2b: just as 2a with a slightly different rythm.
Riff 3: Blinded by the light...
E ---------------------------------
H ---------------------------------
G --------7------------7-----------
D 5---7---7--7-9---7---7--7-4------
A 5---7---5--7-9---7---5--7-4------
E 3---5------5-7---5------5-2------
Riff 4:
E --------3--------
H --------3--------
G 4---2-4-4-2------
D 4---2-2-5-2------
A 2---0-2-5-0------
E --------3--------
Riff 4
Riff 2b (so you say...)
Riff 3 (but I know...)
Riff 5: When I'm one...
E ----------------------------------------
H ----------------------------------------
G 4---7-------7---4---7-------7-----------
D 4---7---5---7-7-4---7---5---7-7-5---4---
A 2---5---5---5-7-2---5---5---5-7-5---4---
E --------3-----5---------3-----5-3---2---
Solo... (with riff 1a (3 times), riff 1b)
Riff 6: Do you feel...
E -------------------------------
H -------------------------------
G ----------------444...2-5-2-4--
D 222...----------444...2-5-2-4--
A 222...----------222...0-3-0-2--
E 000...-------------------------
Riff 6
Riff 7: There are echoes...
E ------------------------
H ------------------------
G 2-2-7-6-4---2---7-------
D 2-2-7-6-4---2---7---7-4-
A 0-0-5-4-2---0---5---7-4-
E --------------------5-2-
Riff 5 (when I'm one...)
Riff 1a (3 times) (one...)
(fill in...)
(E 3--- )
(H -3-- )
(G --4- )
(D ---5 )
(A ---- )
(E ---- )
Riff 8: I am one...
E --------------
H --------------
G --------------
D 444...2-5-2-4-
A 444...2-5-2-4-
E 222...0-3-0-2-
Riff 8 (3 times)
Outro: AAAAAAAAAAAAAAIIIIAAIIAAHHAA...
E --------
H --------
G --------
D 444...4-
A 444...2-
E 222...--
(Transcribed by Peter Pettersson 1996.
E-mail: [email protected]
WWW: http://www.mdstud.chalmers.se/~md6peter/
Phone: (in sweden)
0321-60123)
------------------------------------------------------------------------------




Ваше мнение



Капча