Heavy Metal Universe
Бlbum: PowerPlant
Transcribed by Thiago Del Ciello. (Brazil) E-mail: [email protected]
[email protected]
E----------------------------------------------|
B----------------------------------------------|
G----------------------------------------------|
D--9-----5-----7-----4-----9-----5-----7-----4-|
A--7-----3-----5-----2-----7-----3-----5-----2-|
E----------------------------------------------|
Hey, hey, hey...
E------------------------------------------------------------------------
B------------------------------------------------------------------------
G------------------------7-------------------------7---------------------
D--------------------9-7-5-7-------------------9-7-5-7-------------------
A--------------------7-5---5-------------------7-5---5-3-3-3-3-3-3-3-3-3-
E--0-0-0-0-0-0-0-0-0---------0-0-0-0-0-0-0-0-0---------------------------
E----------------------------------|
B----------------------------------|
G----------------------------------|
D--7-----4-7-------------------7-7-|
A--5-0-0-2-5-------------------5-5-|
E------------0-0-0-0-0-0-0-0-0-----|
We're the masters of the wind.....
E------------------------------------------------------------------------
B------------------------------------------------------------------------
G--------------------------------------------7-7-4-4---------------------
D------------------4-2-7-2-------------------5-7-2-4-----------------4-2-
A--2-2-2-2-2-2-2-2-2-0-5-0-2-2-2-2-2-2-2-2-2---------2-2-2-2-2-2-2-2-2-0-
E------------------------------------------------------------------------
E--------------------------------------------------------|
B--------------------------------------------------------|
G--------------------------------------------------------|
D--7-2---------------------------------------4-4-4-4-4-4-|
A--5-0-------------------7-----4-7-2-2-2-2-2-2-2-2-2-2-2-|
E------3-3-3-3-3-3-3-3-3-5-0-0-2-5-----------------------|
In our sky there is no limits....
E--------------------------------------|
B--------------------------------------|
G--2---7---2---------------------------|
D--2---7---2---4---------------4-----4-|
A--0---5---0---4---------------4-----4-|
E--------------2-2-2-2-2-2-2-2-2-2-2-2-|
`Cause it's a heavy metal universe....
E--------------------------------------------------------|
B--------------------------------------------------------|
G--------------------------------------------------------|
D--4---5---7---4---------7-7---4---5---7---4---------7-7-|
A--2---5---7---4---4-----5-7---2---5---7---4---4-----5-7-|
E------3---5---2---2-2-2---5-------3---5---2---2-2-2---5-|
Hey, hey, hey...
E------------------------------------------------------------------------
B------------------------------------------------------------------------
G------------------------7-----------------------------------------------
D--------------------9-7-5-7--------------------7-----4-7-------------7-7
A--------------------7-5---5--3-3-3-3-3-3-3-3-3-5-0-0-2-5-------------5-5
E--0-0-0-0-0-0-0-0-0--------------------------------------0-0-0-0-0-0----
E------------------------------------------------------------------------
B------------------------------------------------------------------------
G--------------------------------------------7-7-4-4---------------------
D------------------4-2-7-2-------------------5-7-2-4-----------------4-2-
A--2-2-2-2-2-2-2-2-2-0-5-0-2-2-2-2-2-2-2-2-2---------2-2-2-2-2-2-2-2-2-0-
E------------------------------------------------------------------------
E--------------------------------------------------------|
B--------------------------------------------------------|
G--------------------------------------------------------|
D--7-2---------------------------------------4-4-4-4-4-4-|
A--5-0-------------------7-----4-7-2-2-2-2-2-2-2-2-2-2-2-|
E------3-3-3-3-3-3-3-3-3-5-0-0-2-5-----------------------|
E--------------------------------------|
B--------------------------------------|
G--2---7---2---------------------------|
D--2---7---2---4---------------4-----4-|
A--0---5---0---4---------------4-----4-|
E--------------2-2-2-2-2-2-2-2-2-2-2-2-|
`Cause it's a heavy metal universe....
E--------------------------------------------------------|
B--------------------------------------------------------|
G--------------------------------------------------------|
D--4---5---7---4---------7-7---4---5---7---4---------7-7-|
A--2---5---7---4---4-----5-7---2---5---7---4---4-----5-7-|
E------3---5---2---2-2-2---5-------3---5---2---2-2-2---5-|
E------------------------------------------------------------------------
B------------------------------------------------------------------------
G------------------------------------------------------------------------
D----------------------------------12--9----7---5---4-8------------------
A----------------------------------10--7-10-5-9-3-7-2-6------------------
E--0-0-0-0-0--0-0-0-0-0--0-0-0-0-0--------8---7---5------0-0-0-0-0--0-0-0

Guitar Solo
E----------------------------------------|-------------------------|
B----------------------------------------|-------------------------|
G----------------------------------------|-------------------------|
D-------------------12--9----7---5---4-8-|--7--3--5--2--7--3--5--2-|
A-------------------10--7-10-5-9-3-7-2-6-|--5--1--3--0--5--1--3--0-|
E--0-0--0-0-0-0-0-0--------8---7---5-----|-------------------------|
Guitar Solo
E--------------------------------------|-------------------------------|
B--------------------------------------|--------------2X---------------|
G------6-7-9-7h9p7-6-------------------|-------------------------------|
D--7-8---------------8-7-5-3-2-------2-|--7--7-7-73--5-5-5/7--5-5-5/7-|
A------------------------------5-4-5---|--5--5-5-51--3-3-3/5--3-3-3/5-|
E--------------------------------------|-------------------------------|
E------------------------------------------------------------------------
B------------------------------------------------------------------------
G------------------------------------------------------------------------
D----------------------------------7----------------------11----9--------
A----------------------------------7-----------------------9-12-7-11-----
E--2-2-2-2-2--2-2-2-2-2--2-2-2-2-2-5--2-2-2-2-2--2-2-2-2-2---10----9--2-2
E-----------------------------------------------|
B-----------------------------------------------|
G-----------------------------------------------|
D--------7----------------------------------2-5-|
A--------7----------------------------------2-5-|
E--2-2-2-5--2-2-2-2-2--2-2-2-2-2--2-2-2-2-2-0-3-|
E------------------------------------------------------------------------
B------------------------------------------------------------------------
G------------------------------------------------------------------------
D----------------------------------5----------------------------------5-3
A----------------------------------3----------------------------------5-1
E--5-5-5-5-5--5-5-5-5-5--5-5-5-5-5----5-5-5-5-5--5-5-5-5-5--5-5-5-5-5-3—
E---------------------------------------------------|
B---------------------------------------------------|
G---------------------------------------------------|
D-----------------------------------6-2-4---9-6-8---|
A-----------------------------------------6-------9-|
E--5-5-5-5-5--5-5-5-5-5--5-5-5-5-5------------------|
E----------------------------------------------|
B----------------------------------------------|
G----------------------------------------------|
D--9-----5-----7-----4-----9-----5-----7-----4-|
A--7-----3-----5-----2-----7-----3-----5-----2-|
E----------------------------------------------|
E------------------------------------------|
B------------------------------------------|
G-------8-9-11-9h11p9-8--------------------|
D--9-10-----------------10-9-7-5-4-2-1-2-4-|
A------------------------------------------|
E------------------------------------------|
E--------------------------------------|
B--------------------------------------|
G--7---7---7---------------------------|
D--7---5---7---4---------------4---4---|
A--5-------5---2-2-2-2-2-2-2-2-2-2-2---|
E--------------------------------------|
`Cause it's a heavy metal universe....
E-------------------------------------------------------------|
B-------------------------------------------------------------|
G-------------------------------------------------------------|
D--4---5---7---4---------5-7---4---5---7---4---------7--------|
A--2---5---7---4---4-----5-7---2---5---7---4---4-----5—-7--9--|
E------3---5---2---2-2-2-3-5-------3---5---2---2-2-2----5--7--|




Ваше мнение



Капча