Band : Gamma Ray
Album: LAND OF THE FREE
Song : FAIRYTALE
[Words&Music by Kai Hansen]
[Transcripted by L-X]
Notations :
.: palm muting (or timing)
h : hammer-on
p : pull-off
>^ : bend
/ = slide-up
= slide-down
~~ = vibrate
> = accentuate
RIFF
e|.-------.-------.-------.-------.-------.-------.-------.-------|
B|----------------------------------------------------------------|
G||-----------|-|-|---------------|---------------|---------------|
D|4-----------4-6-7---------------2---------------4---------------|
A|2-2222--22--2-4-5-555500555555550-000000554422002-22222255442200|
E|------22--22----------------------------------------------------|
P.M.[........] [............] [............] [.............]

---------------------------------------------------------------------------------

_Now, we stand together______our fight is to be free____________We
e|Guit3---.-----h-.-------.-----h---------.-----+1.-------.-------|
B|12~~--------121412~~--------121415~~------15>^--14~~------------|
G|----------------------------------------------------------------|
D|----------------------------------------------------------------|
A|----------------------------------------------------------------|
E|----------------------------------------------------------------|
||
e|Guit2---.-------.-------.-------.-------.-------.-------.-------|
B|--------------h-------------------------------------------------|
G|11~~---------91112~~------------14~~------------9~~-------------|
D|----------------------------------------------------------------|
A|----------------------------------------------------------------|
E|----------------------------------------------------------------|
||
e|Guit1---.-------.-------.-------.-------.-------.-------.-------|
B|----------------------------------------------------------------|
G|----------------------------------------------------------------|
D|--------------------------------|-------------------------------|
A||---------------|---------------5555555555555555|---------------|
E|77777777777777773333333333333333----------------5555555555555555|
P.M.[............................................................]

_never will surrender_________we ride across the fields____Now it's
e|Guit3---.-----h-.-------.-----h---------.-------14~~----.-------|
B|12~~--------121412~~--------121415~~----------------------------|
G|----------------------------------------------------------------|
D|----------------------------------------------------------------|
A|----------------------------------------------------------------|
E|----------------------------------------------------------------|
||
e|Guit2---.-------.-------.-------.-------.-------.-------.-------|
B|--------------h---------------------------------14~~------------|
G|11~~---------91112~~------------14~~----------------------------|
D|----------------------------------------------------------------|
A|----------------------------------------------------------------|
E|----------------------------------------------------------------|
||
e|Guit1---.-------.-------.-------.-------.-------.-------.-------|
B|----------------------------------------------------------------|
G|----------------------------------------------------------------|
D|--------------------------------|-------------------------------|
A||---------------|---------------5555555555555555|---------------|
E|77777777777777773333333333333333----------------2222222222222222|
P.M.[............................................................]

time to break the silence and the truth should be revealed__Take the
e|Guit1---.-------.-------.-------.-------.-------.-------.-------|
B|----------------------------------------------------------------|
G|----------------------------------------------------------------|
D|----------------------------------------------------------------|
A||---------------|---------------|---------------|---------------|
E|3333333333333333777777777777777755555555555555557777777777777777|
P.M.[............................................................]

_questionmark from your head_Let the fairytale be real_____
e|Guit3---.-----h-.-------.-------.-------.-----h-.-------.-------|
B|12~~----10~~121012~~------------12~~----14~~121415~~------------|
G|----------------------------------------------------------------|
D|----------------------------------------------------------------|
A|----------------------------------------------------------------|
E|----------------------------------------------------------------|
||
e|Guit2---.-------.-------.-------.-------.-------.-------.-------|
B|---------------h-------------------------------h----------------|
G|11~~----9~~--1197~~-------------7~~-----9~~---7911~~------------|
D|----------------------------------------------------------------|
A|----------------------------------------------------------------|
E|----------------------------------------------------------------|
||
e|Guit1---.-------.-------.-------.-------.-------.-------.-------|
B|----------------------------------------------------------------|
G|--------------------------------|-------|-------|---------------|
D|--------------------------------5-------7-------9--------------|
A||-------|-------|---------------5-------7-------9--------------|
E|777777775555555533333333333333333-------5-------7--------------|
P.M.[............................................................]

_fairytale__be__real
e|Guit3---.-----h-.-------.---|
B|15~~----17~~151719~~----}---|
G|----------------------------|
D|----------------------------|
A|----------------------------|
E|----------------------------|
||
e|Guit2---.-------.-------.---|
B|--------------h-------------|
G|16~~----18~~161819~~----}---|
D|----------------------------|
A|----------------------------|
E|----------------------------|
||
e|Guit1---.-------.-------.---|
B|----------------------------|
G|-----------------------PHarm|
D|------------------------9~-}|
A||-------|-------|-----------|
E|333333335555555577777777----|
P.M.[....................]




Ваше мнение



Капча