Band : Gamma Ray
Album: POWERPLANT
Song : Anywhere In The Galaxy
Music & Lyrics by Kai Hansen
LX - 01/2001
2
Guit.1 & 2
e|.---.---.---.---.---.---.---.---|.---.---.---.---.---.---.---.---|
B|--------------------------------|--------------------------------|
G||-|-|-----|-----|-|-|-|---|-----||-|-|-----|-----|-|-|-|---|-----|
D|107-9-----9-----7/9-109---9-----|107-9-----9-----7/9-109---9-----|
A|8-5-7-77887-----5/7-87-|-7-----|8-5-7-77887-----5/7-87-|-7-----|
E|------------------------0-------|------------------------0-------|
P.M. [..] [.] [..] [.]
Guit.1 & 2
e|.---.---.---.---.---.---.---.---|.---.---.---.---.---.---.---.---|
B|--------------------------------|--------------------------------|
G||-|-|-----|-----|-|-|-|---|-----||-|-|-----|-----|---|-----|-----|
D|107-9-----9-----7/9-109---9-----|9-7-5-----5-----5---7-----7-----|
A|8-5-7-77887-----5/7-87-|-7-----|7-5-3-33333-33333-335-55555-5555|
E|------------------------0-------|--------------------------------|
P.M. [..] [.] [..] [..] [.] [..] [..]
repeat......end intro.
Like Henjo, you may use the fifth finger to play the eight note in this riff.
3
Guit.1 & 2
e|.-------.-------.-------.-------|.-------.-------.-------.-------|
B|--------------------------------|--------------------------------|
G|--------------------------------|--------------------|--------|--|
D|--------------------------------|--------------------7--------5--|
A|57--77--88--77--57--77--55--33--|57--77--88--77--77775----33333--|
E|--00--00--00--00--00--00--00--00|--00--00--00--00----------------|
P.M.[..................................................] [..]
Guit.1 & 2
e|.-------.-------.-------.-------|.-------.-------.-------.-------|
B|--------------------------------|--------------------------------|
G|--------------------------------|--------------------|--------|--|
D|--------------------------------|--------------------7--------5--|
A|57--77--88--77--57--77--55--33--|57--77--88--77--77775----33333--|
E|--00--00--00--00--00--00--00--00|--00--00--00--00----------------|
P.M.[..................................................] [..]
4
Lost and stranded far away from home
Guit.1 & 2
e|.---.---.---.---.---.---.---.---|.---.---.---.---.---.---.---.---|
B|--------------------------------|--------------------------------|
G|--------------------------------|----------------|---|---|---|---|
D|--------------------------------|----------------7---4---7---12--|
A|57--77--77--557788--77--77--53--|57--77--77--77--5---2---5---10--|
E|--00--00--00------00--00--00--00|--00--00--00--00----------------|
P.M.[.............................................]
Peeping through the window in the darkness
Guit.1 & 2
e|.---.---.---.---.---.---.---.---|.---.---.---.---.---.---.---.---|
B|--------------------------------|--------------------------------|
G|--------------------------------|--------------------------------|
D|--------------------------------|--------------------------------|
A|57--77--77--557788--77--77--53--|57--77--77--77------------------|
E|--00--00--00------00--00--00--00|--00--00--00--007777888877773333|
P.M.[..............................................................]
Glowing turning circles where we go
Guit.1 & 2
e|.---.---.---.---.---.---.---.---|.---.---.---.---.---.---.---.---|
B|--------------------------------|--------------------------------|
G|--------------------------------|----------------|---|---|---|---|
D|--------------------------------|----------------7---4---7---12--|
A|57--77--77--557788--77--77--53--|57--77--77--77--5---2---5---10--|
E|--00--00--00------00--00--00--00|--00--00--00--00----------------|
P.M.[.............................................]
Blind our souls with raging burning madness
Guit.1 & 2
e|.---.---.---.---.---.---.---.---|.---.---.---.---.---.---.---.---|
B|--------------------------------|--------------------------------|
G|--------------------------------|--------------------------------|
D|--------------------------------|--------------------------------|
A|57--77--77--557788--77--77--53--|57--77--77--77------------------|
E|--00--00--00------00--00--00--00|--00--00--00--007777888877773333|
P.M.[..............................................................]
5
Out in the heavens we're ready to fight
Guit.1 & 2
e|.---.---.---.---.---.---.---.---.---.---.---.---.---.---.---.---|
B|----------------------------------------------------------------|
G||-----|-----|---|-----|-----|---|-----|-----|-------------------|
D|5-----5-----5---5-----5-----5---4-----4-----4-------------------|
A|3-33333-33333-333-33333-33333-335-55555-55555---1291079573523200|
E|----------------------------------------------------------------|
P.M.[..] [..] [.] [..] [..] [.] [..] [..] [...............]
Final conclusion is roaring inside
Guit.1 & 2
e|.---.---.---.---.---.---.---.---.---.---.---.---.---.---.---.---|
B|----------------------------------------------------------------|
G||-----|-----|---|-----|-----|---|-----|-----|---|-|-|-|-|-|-----|
D|2-----2-----2---2-----2-----2---4-----4-----4---7-7-7-7-7-7-----|
A|3-33333-33333-333-33333-33333-335-55555-55555---5-5-5-5-5-5-/--|
E|----------------------------------------------------------------|
P.M.[..] [..] [.] [..] [..] [.] [..] [..] [..........]
6
Gaze at the stars, the glowing god of mars
Guit.1 & 2
e|.-------.-------.-------.-------.-------.-------.-------.-------|
B|----------------------------------------------------------------|
G|----------------|-------------------------------|---------------|
D||---------------7---------------|---------------9---------------|
A|5---------------5-555555555555557---------------7-77777777777777|
E|3-33333333333333----------------5-5555555555555-----------------|
P.M.[............] [............] [...........] [.............]
Is shining for us, anywhere in the galaxy
Guit.1 & 2
e|.-------.-------.-------.-------.-------.-------.-------.-------|
B|----------------------------------------------------------------|
G||---------------|---------------|---------------|---------------|
D|5---------------12--------------14--------------7---------------|
A|3-3333333333333310--10101010101012--1212121414125-55555555555555|
E|----------------------------------------------------------------|
P.M.[............] [............] [............] [.............]
7
Time is right for us to see, the world will long for liberty
Guit.1 & 2
e|3-------.-------|-------.-------.-------.-------.-------.-------|
B|3---------------3---------------|---------------|---------------|
G|0---------------2---------------2---------------9---------------|
D|0---------------0---------------2---------------9---------------|
A|x---------------0---------------0---------------7---------------|
E|3---------------------------------------------------------------|
The fallen heroes calling me, anywhere in the galaxy
Guit.1 & 2
e|.-------.-------.-------.-------.-------.-------.-------.-------|
B||---------------|---------------|-------------------------------|
G|5---------------12--------------14--------------|---------------|
D|5---------------12--------------14--------------7---------------|
A|3---------------10--------------12--------14-12-5-55555555555555|
E|----------------------------------------------------------------|
P.M. [.............]
......
9 END REFRAIN
Anywhere in the galaxy Anywhere in the galaxy
Guit.1 & 2
e|.---.---.-7-.---.---.---.---.---|.---.---.-7-.---.---.---.---.---|
B|----------8---------------------|----------8---------------------|
G||-|-|-----7-----|-|-|-|---|-----||-|-|-----7-----|-|-|-|---|-----|
D|97-9-----9-----9/7-7-5-|-5-----|97-9-----9-----9/7-7-5-|-5-----|
A|75-7-----7-----7/5-53-3-3-----|75-7-----7-----7/5-53-3-3-----|
E|------0000----------------------|------0000----------------------|
P.M. [..] [.] [..] [.]




Ваше мнение



Капча