FUN LOVIN' CRIMINALS
Come find yourself - album
Tabbed by: Fjon ([email protected])
Nearly of the bass lines on this album are really short riffs, so I
decided I might as well tab the whole album. Most of the stuff is very
easy and fun to play. I have no idea if its played on a bass, or on a
keyboard, but I know that when they play live, the keyboard player
plays the bass on a pedal operated keyboard. A lot of the songs here
are played on a five dtring, so I'll writreout for four string as well-
it won't sound the same, though!
We Have All The Time In the World
Note: mostly play the bass in time with the bass drum.
The notes in brackets are the ones you should play if you're using a
four-string bass.
Intro Verse
G|---------------------||----------------------------------|
D|---------------------||----------------------------------|
A|---------------------||-----------------(4--4-4)---------|
E|-5--5-5--4-2--2-2--4-||-5--5-5---2--2-2-----------0--0-0-|
B|---------------------||------------------2--2-2----------|
G|--------------------------------|
D|--------------------------------|
A|-------------------------*--*-*-| * = Play first time only
E|-5--5-5--7--7-7--5--5-5--0--0-0-|
B|--------------------------------|
And every step...
G|---------------------------------|---------------------------------|
D|---------------------------------|---------------------------------|
A|-3--3-3--1--1-1--1---------------|----------------5-7--7-7--7--7-7-|
E|------------------1--1-1--1--1-1-|-4--4-4--2--2-2------------------|
B|---------------------------------|---------------------------------|




Ваше мнение



Капча