There was a time
by Fun Lovin Criminals
from the new album 'Loco'
transcribed by Christian Reindel ([email protected])
any questions or corrections- e-mail me
Normal tuning

Play this the whole song - a great song
Am Dm Fm Em
E:|-0-----1-----0------0---------|
B:|-1-----3-----1------0---------|
G:|-2-----2-----2------0---------|
D:|-2-----0-----3------2---------|
A:|-0-----------3------2---------|
E:|-------------1------0---------|
Guitarsolo
E:|--------------------------------------------------------------|
B:|--------------------------------------------------------------|
G:|--------------------------------------------------------------|
D:|---------10~~-----------------------10~~----------------------|
A:|-10--12------10--12-------10^12^10--------10/12--12-----------|
E:|--------------------------------------------------------------|
E:|--------------------------------------------------------------|
B:|--------------------------------------------------------------|
G:|--------------------------------------------------------------|
D:|--------10^12^10-------10^12^10--------10^12^10---12-10-------|
A:|-10^12-----------10^12----------10^12-------------------10/12-|
E:|--------------------------------------------------------------|
E:|--------------------------------------------------------------|
B:|--------------------------------------------------------------|
G:|--------12~~----------------------------12~~------------------|
D:|-----10------10---------------10^12^10-------10---------------|
A:|--12------------12-------------------------------12-----------|
E:|--------------------------------------------------------------|
E:|--------------------------------------------------------------|
B:|--------------------------------------------------------------|
G:|----------12^14^12------------12^14^12-------------14-12------|
D:|-10^12^10----------10^12^10--------------10^12^10-------10/12-|
A:|--------------------------------------------------------------|
E:|--------------------------------------------------------------|




Ваше мнение



Капча