This is a simple song but moving from one chord to another takes a bit of practise.
Here are the chords:
D A C G
e|----2----------0----------0--------3-----------------------------------|
B|----3----------2----------1--------0-----------------------------------|
G|----2----------2----------0--------0-----------------------------------|
D|----0----------2----------2--------0-----------------------------------|
A|----0----------0----------3--------2-----------------------------------|
E|----x----------x----------0--------3-----------------------------------|
Here is the tune:
e|--2------0--0----0--0-------0-------3--3----3--3----------------------|
B|--3------2--2----2--2-------1-------0--0----0--0----------------------|
G|--2------2--2----2--2-------0-------0--0----0--0----------------------|
D|--0------2--2----2--2-------2-------0--0----0--0----------------------|
A|--0------0--0----0--0-------3-------2--2----2--2----------------------|
E|--x------x--x----x--x-------0-------3--3----3--3----------------------|
The rest of the song it quite easy to catch on.
It uses the same chords so its easy enough to play :)
Any questions : I really dont care
Works for me :)




Ваше мнение



Капча