FUN LOVIN' CRIMINALS
Come find yourself - album
Tabbed by: Fjon ([email protected])
Nearly of the bass lines on this album are really short riffs, so I
decided I might as well tab the whole album. Most of the stuff is very
easy and fun to play. I have no idea if its played on a bass, or on a
keyboard, but I know that when they play live, the keyboard player
plays the bass on a pedal operated keyboard. A lot of the songs here
are played on a five dtring, so I'll writreout for four string as well-
it won't sound the same, though!
Passive/ Aggressive
Verse Chorus
G|---------|--------------| |---------|---------|-------|--------|
D|-7---7-7-|---------4--5-| |---------|---------|-------|--------|
A|---7-----|7-5--5-5------| |---------|---------|-3-5-5-|-x3h5-5-|
E|---------|--------------| |-x3--1-1-|-x3--1-1-|-------|--------|
G|--------|---------|
D|--------|---------|
A|-x3h5-5-|---------|
E|--------|-x3--1-1-|




Ваше мнение



Капча