FUN LOVIN' CRIMINALS
Come find yourself - album
Tabbed by: Fjon ([email protected])
Nearly of the bass lines on this album are really short riffs, so I
decided I might as well tab the whole album. Most of the stuff is very
easy and fun to play. I have no idea if its played on a bass, or on a
keyboard, but I know that when they play live, the keyboard player
plays the bass on a pedal operated keyboard. A lot of the songs here
are played on a five dtring, so I'll writreout for four string as well-
it won't sound the same, though!
Methadonia
Play along with bass drum. I can't really hear the bass during the
solo, so the bit I've written down isn't exactly right.
Five-string:
G|-----------|--------|-------|--------|------------|
D|-----------|--------|-------|--------|------------|
A|-----------|--------|-------|--------|------------|
E|5--5-5-5-5-|--------|-------|--------|----------5-|
B|-----------|-3--3-3-|-3-3/4-|-3--3-3-|-5-5--3-3---|
Four-string:
G|-----------|--------|-------|--------|------------|
D|7--7-7-7-7-|--------|-------|--------|----------7-|
A|-----------|-5--5-5-|-5-5/6-|-5--5-5-|-7-7--5-5---|
E|-----------|--------|-------|--------|------------|

Solo:
G|-------------|
D|---7-----7-7-|
A|-------------|
E|-5---5-5-----| or something similar
B|-------------|




Ваше мнение



Капча