Fun lovinЎ¦ criminals : lost it all( album : welcome to poppyЎ¦s)
Tuning : normal : E A D G B e
Distortion
X= palm mute
Intro + verse
6:------------------------------------------|
5:------------------------------------------|
4:-3-3-3--5-5-5--8-8-8----------------------|
3:-3-3-3--5-5-5--8-8-8--3-3-3---------------|
2:-1-1-1--3-3-3--6-6-6--3-3-3---------------|
1:----------------------1-1-1---------------|
x x x x x x x x
Ў§woooooohoooohoooЎЕ part
6:-------------------------------------------|
5:-------------------------------------------|
4:-5------8----------------------------------|
3:-5------8-------3-----5--------------------| x 3
2:-3------6-------3-----5--------------------|
1:----------------1-----3--------------------|
6:---------------------------------------------------|
5:---------------------------------------------------|
4:-5------8----10---12-------------------------------|
3:-5------8----10---12-------------------------------|
2:-3------6----8----10-------------------------------| x1
1:---------------------------------------------------|
..and it feels like I lost it allЎK
6:-------------------------------------------|
5:-------------------------------------------|
4:-55555555--88888888------------------------|
3:-55555555--88888888----33333333 55555555---|
2:-33333333--66666666----33333333 55555555---|
1:-----------------------11111111 33333333---|
canЎ¦t help you with solos and the weird riff , Huey is too schmoove ѓє flc really rule.
(Dedicated to miss Verheyen)
Well my heart breaks every time I see her
and my heart breaks every time I turn around
(wooooooohhhoooohhhhooo)
and my heart breaks every time I hear her name
and my heart breaks down again, itЎ¦s a crying shame
and it feels like I lost it all
yeah it feels like I lost it all
and it feels like I lost it all
yeah it feels like I lost it all
well my heart takes more or less the same as you
but you got your high class friends to get you through
(wooohoooohoooooooo)
now pitter patter pitter patter whatЎ¦s the matter
you got the baby to
well you re all caught up in the lies that got thrown at you
and it feels like I lost it all
yeah it feels like I lost it all
and it feels like I lost it all
yeah it feels like I lost it all
my earth moves every time I feel it
my earth moves with every song IЎ¦m singing
( wooohhoooohhhoooo)
and the ground shakes ЎҐcause IЎ¦ll never be the same
and my heart breaks down again ЎҐcause IЎ¦m to blame
and it feels like I lost it all
yeah it feels like I lost it all
and it feels like I lost it all
yeah it feels like I lost it all
[email protected] , if you like flc as much as I do, you can always contact me on MSN.




Ваше мнение



Капча