#-----------------------------PLEASE NOTE-------------------------------------#
#This OLGA file is the author's own work and represents their interpretation #
#of the song. You may only use this file for private study, scholarship, or #
#research. Remember to view this file in Courier, or some other monospaced #
#font. See http://www.olga.net/faq/ for more information. #
#-----------------------------------------------------------------------------#

Date: Mon, 10 Jul 2000 15:36:30 -0400
From: Alex Lawson
Subject: f/fun_lovin_criminals/crime_and_punishment.tab

Title : Crime And Punishment
Artist : Fun Lovin' Criminals
Tabbed By : Alex Lawson
Tuning : Standard EADGBE

Here is the riff which is repeated over and over throughout the
whole song !

e||------------------------|------------------------||
B||------------------------|------------------------||
G||------------------------|------------------------||
D||------------------------|------------------------||
A||--9----8----7-----------|--9----8----7-----------||
E||-----------------7--10--|-----------------7--10--||

and finish with a

e|------------------------|----------------||
B|------------------------|----------------||
G|------------------------|----------------||
D|------------------------|----------------||
A|--9----8----7-----------|----------------||
E|-----------------7--10--|--7--10----7----||
^
Linger on this note a bit longer
than the rest.




Ваше мнение



Капча