Title: These Things
Artist: Fuel
Album: Natural Selection
Tabbed by: Timothy Maxwell ([email protected]
(Rhythm guitar parts)
Tuned down Ѕ step: (Eb Ab Dd Gb Bb Eb)
CHORDS:
Am7: X02213
Am7/E: 0X2213
D: XX0232
G: 320033
G#m: 4X044X
F: 133211 OR 1332XX OR X33211
Am: X02210
E: 022100
C: X32010
Intro:
(slight distortion)
Am7 Am7/E D Am7 Am7/E D
|---3-3-3---3----3---2-2-3-3-|---3-3-3---3----3---2-2-3-3-|
|---1-1-1---1----1---3-3-3-3-|---1-1-1---1----1---3-3-3-3-|
|---2-2-2--------2---2-2-2-2-|---2-2-2--------2---2-2-2-2-|
|-2---2-2--------2---0-0-0-0-|-2---2-2--------2---0-0-0-0-|
|-0---0-0-0------------------|-0---0-0-0------------------|
|--------------0-------------|--------------0-------------|
Verse 1:
I have a smile to hide me I have this cross to bear
Am7 Am7/E D Am7 Am7/E D
|---3-3-3---3----3---2-2-3-3-|---3-3-3---3----3---2-2-3-3-|
|---1-1-1---1----1---3-3-3-3-|---1-1-1---1----1---3-3-3-3-|
|---2-2-2--------2---2-2-2-2-|---2-2-2--------2---2-2-2-2-|
|-2---2-2--------2---0-0-0-0-|-2---2-2--------2---0-0-0-0-|
|-0---0-0-0------------------|-0---0-0-0------------------|
|--------------0-------------|--------------0-------------|
I have your picture that still
haunts me like you memory
Am7 Am7/E D
|---3-3-3---3----3---2-2-3-3-|
|---1-1-1---1----1---3-3-3-3-|
|---2-2-2--------2---2-2-2-2-|
|-2---2-2--------2---0-0-0-0-|
|-0---0-0-0------------------|
|--------------0-------------|
These things have I
G G#m Am
|-3---3---------------------------------------------------|
|-3---3----4---4----------3-1-0-0h1-0h1-----3-1-0-0h1-0h1-|
|-0---0----4---4---------2-----------------2--------------|
|-0---0----0---0--------2-----------------2---------------|
|-2---2----X---X-------0-----------------1----------------|
|-3---3----4---4------------------------------------------|
Verse 2:
(distortion)
I have these words to lie to me, these stupid songs to share
Am7 Em D Am7 Em D
|---3-3-3---3--0-0---2-2-3-3----|---3-3-3---3--0-0---2-2-3-3----|
|---1-1-1---1--0-0---3-3-3-3----|---1-1-1---1--0-0---3-3-3-3----|
|---2-2-2------0-0---2-2-2-2----|---2-2-2------0-0---2-2-2-2----|
|-2---2-2------2-2---0-0-0-0----|-2---2-2------2-2---0-0-0-0----|
|-0---0-0-0----2-2--------------|-0---0-0-0----2-2--------------|
|--------------0-0----------0h3-|--------------0-0----------0h3-|
I have these countless hours
to fill the void you left me
Am7 Em D
|---3-3-3---3--0-0---2-2-3-3-|
|---1-1-1---1--0-0---3-3-3-3-|
|---2-2-2------0-0---2-2-2-2-|
|-2---2-2------2-2---0-0-0-0-|
|-0---0-0-0----2-2-----------|
|--------------0-0-----------|
These things have I
G G#m Am
|-3---3---------------------------------------------------|
|-3---3----4---4----------3-1-0-0h1-0h1-----3-1-0-0h1-0h1-|
|-0---0----4---4---------2-----------------2--------------|
|-0---0----0---0--------2-----------------2---------------|
|-2---2----X---X-------0-----------------1----------------|
|-3---3----4---4------------------------------------------|
Guitar Solo:
Am7 Em D Am7 Em D
|---3-3-3---3--0-0---2-2-3-3----|---3-3-3---3--0-0---2-2-3-3----|
|---1-1-1---1--0-0---3-3-3-3----|---1-1-1---1--0-0---3-3-3-3----|
|---2-2-2------0-0---2-2-2-2----|---2-2-2------0-0---2-2-2-2----|
|-2---2-2------2-2---0-0-0-0----|-2---2-2------2-2---0-0-0-0----|
|-0---0-0-0----2-2--------------|-0---0-0-0----2-2--------------|
|--------------0-0-----------0h3|--------------0-0----------0h3-|
Am7 Em D
|---3-3-3---3--0-0---2-2-3-3-|
|---1-1-1---1--0-0---3-3-3-3-|
|---2-2-2------0-0---2-2-2-2-|
|-2---2-2------2-2---0-0-0-0-|
|-0---0-0-0----2-2-----------|
|--------------0-0-----------|
G G#m Am
|-3---3---------------------------------------------------|
|-3---3----4---4----------3-1-0-0h1-0h1-----3-1-0-0h1-0h1-|
|-0---0----4---4---------2-----------------2--------------|
|-0---0----0---0--------2-----------------2---------------|
|-2---2----X---X-------0-----------------1----------------|
|-3---3----4---4------------------------------------------|
Bridge:
And all these things I've done, Let you down I just apologize
[And all these things I've done]
G Am C E
|-3---3---3---0---0---0---------0---0---0------0---0---0------|
|-3---3---3---1---1---1-------1-1---1---1------0---0---0------|
|-0---0---0---2---2---2-------0-0---0---0------1---1---1------|
|-0---0---0---2---2---2-------X-2---2---2------2---2---2------|
|-2---2---2---0---0---0-------2-3---3---3------2---2---2------|
|-3---3---3------------------------------------0---0---0------|
But sorry's hard somehow, Seems so strange it'd be so easy now
[Sorry's hard somehow]
F Am C E
|-1---1---1-0---0---0-----0---0---0-------------0---0---0-----|
|-1---1---1-1---1---1---1-1---1---1-------------0---0---0-----|
|-2---2---2-2---2---2---0-0---0---0-------------1---1---1-----|
|-3---3---3-2---2---2---X-2---2---2-------------2---2---2-----|
|-3---3---3-0---0---0---2-3---3---3-------------2---2---2-----|
|-1---1---1-------------------------------------0---0---0-----|
Verse 3:
And I'v got this faith to And I've got these dreams
blind me we shared
Am7 Em D Am7 Em D
|---3-3-3---3--0-0---2-2-3----|---3-3-3---3--0-0---2-2-3-3-----|
|---1-1-1---1--0-0---3-3-3----|---1-1-1---1--0-0---3-3-3-3-----|
|---2-2-2------0-0---2-2-2----|---2-2-2------0-0---2-2-2-2-----|
|-2---2-2------2-2---0-0-0----|-2---2-2------2-2---0-0-0-0-----|
|-0---0-0-0----2-2------------|-0---0-0-0----2-2---------------|
|--------------0-0--------0h3-|--------------0-0-----------0h3-|
And I have the fear that dreams
are all I have that's left to me
Am7 Em D
|---3-3-3---3--0-0---2-2-3-3-|
|---1-1-1---1--0-0---3-3-3-3-|
|---2-2-2------0-0---2-2-2-2-|
|-2---2-2------2-2---0-0-0-0-|
|-0---0-0-0----2-2-----------|
|--------------0-0-----------|
These things all these things
[these things] [all these
G G#m F Em
|-3---3---------------1---1---1--0-----0-----0----------|
|-3---3----4---4------1---1---1--0-----0-----0----------|
|-0---0----4---4------2---2---2--0-----0-----0----------|
|-0---0----0---0------3---3---3--2-----2-----2----------|
|-2---2----X---X------3---3---3--2-----2-----2----------|
|-3---3----4---4------1---1---1--0-----0-----0----------|
These things have I
things]
F G Am
|-1---1---3---3---3-|-0---0-|
|-1---1---3---3---3-|-1---1-|
|-2---2---0---0---0-|-2---2-|
|-3---3---0---0---0-|-2---2-|
|-3---3---2---2---2-|-0---0-|
|-1---1---3---3---3-|-------|
These things all these things
[these things] [all these
G G#m F Em
|-3---3---------------1---1---1--0-----0-----0----------|
|-3---3----4---4------1---1---1--0-----0-----0----------|
|-0---0----4---4------2---2---2--0-----0-----0----------|
|-0---0----0---0------3---3---3--2-----2-----2----------|
|-2---2----X---X------3---3---3--2-----2-----2----------|
|-3---3----4---4------1---1---1--0-----0-----0----------|
These things have I_____
things]
F G Am G F Am
|-1---1---3---3-3-||-0---0-0-0---3---3-3-3----1---1-1-1---0---0-0-0-||
|-1---1---3---3-3-||-1---1-1-1---3---3-3-3----1---1-1-1---1---1-1-1-||
|-2---2---0---0-0-||-2---2-2-2---0---0-0-0----2---2-2-2---2---2-2-2-||
|-3---3---0---0-0-||-2---2-2-2---0---0-0-0----3---3-3-3---2---2-2-2-||
|-3---3---2---2-2-||-0---0-0-0---2---2-2-2----3---3-3-3---0---0-0-0-||
|-1---1---3---3-3-||-------------3---3-3-3----1---1-1-1-------------||
|________________________________________________|
Play several times and fade out





Ваше мнение



Капча