Fuel, stripped away.
Tabbed by Leonard Costa Leite, [email protected]

[email protected]-------------#
#-- File created with Instab - http://www.pconline.com/~smcarey/instab.html --#
#-----------------------------------------------------------------------------#
Author/Artist: Fuel
Title: Stripped Away
Album: Hemmorrage single
Transcribed by: Leonard Costa Leite
Email: [email protected]
this is one of the songs i think should have made it onto the album its
really good.
It took me a while to figure out because i assumed it was
played with chords. Any help would be appreciated
Verse
Stripped away (back to verse)
-0----0-0-0--0-------|
-0----0-0-0--0-------|
-x----x-x-x--x--0-0-0|
-9h11-9-9h11-9--0-0-0|
-0----0-0-0--0--9-9-7|
---------------------|
I must have left my sould cracked open like a door in the night
-0-0-0-0-0--0--0--0--0--0--0--0-0-0--0--0--0--0--0-0|
-0-0-0-0-0--0--0--0--0--0--0--0-0-0--0--0--0--0--0-0|
-0-0-0-0-0--0--0--0--0--0--0--9-9-11-11-12-12p11-9-7|
-9-9-9-9h11-11-11-11-12-12-12-0-0-0--0--0--0--0--0-0|
-0-0-0-0-0--0--0--0--0--0--0------------------------|
----------------------------------------------------|
I want to find a shell of a man of all i once believed............
stripped away (back to verse)
--------------------------|-0-0-0--0--0--0---0--0-0-|
-0--0-0-0-0-0-0-0--0--0--0|-0-0-0--0--0--0---0--0-0-|
-0--0-0-0-0-0-0-0--0--0--0|-9-9-11-11-12-12p11--9-7-|
-11p9-9-9-9-9-9h11-0--11-9|-0-0-0--0--0--0---0--0-0-|
-0--0-0-0-0-0-0-0--12-0--0|-------------------------|
--------------------------|-------------------------|
oh oh oh oh
Tabbed By leonard Costa Leite





Ваше мнение



Капча