Artist: Fuel
Song Title: Million Miles
Album: Natural Selection
Words & Music by Carl Bell
Tabbed by Timothy Maxwell (email: [email protected])
Tuned down 1 half step: Eb Ab Db Gb Bb Eb
Intro:
Bm Bsus2
(clean elec. Gtr.)
|--0-0-0-0-0-0-0-0-0—0-0-0-0-0-0-0-|
|--3-3-3-3-3-3-3-3-2-2-2-2-2-2-2-2-|
|--4-4-4-4-4-4-4-4-4-4-4-4-4-4-4-4-|
|--4-4-4-4-4-4-4-4—4-4-4-4-4-4-4-4-|
|--2-2-2-2-2-2-2-2—2-2-2-2-2-2-2-2-|
|----------------------------------|
Verse 1:
Bm Bm/A Bm/G E
On my way for the day I find no sorrow
|--0------------------0-----------0------------0----------|
|--3------------------3-----------3------------0----------|
|--4------------------4-----------4------------1----------|
|--4------------------4-----------4------------2----------|
|--2-(Keep Strumming)-0-----------X------------2----------|
|---------------------------------3------------0----------|

Bm Bm/A Bm/G E
Everyday is all the same, there’s no tomorrow
Bm Bm/A Bm/G E
And I feel like I feel, cause it’s cold here where you left me
Chorus: (distortion)
G5 A5 B5
Hey,___ I__ think that someday I might need you somehow
|--------------------------------------------------------------|
|--------------------------------------------------------------|
|--------------------------------------------------------------|
|--5-5----7-7--------------------------------------------------|
|--5-5----7-7------7/9-----------------------7/9---------------|
|--3-3----5-5------5/7-----------------------5/7---------------|
G5 A5 B5
I,__ I,__ think I might have loved you
|--------------------------------------------------------------|
|--------------------------------------------------------------|
|--------------------------------------------------------------|
|--5-5----7-7--------------------------------------------------|
|--5-5----7-7------7/9----------------7/9----------------------|
|--3-3----5-5------5/7----------------5/7----------------------|
G5 A5 B5
These things I said, but you were
|----------------------------------------------|
|----------------------------------------------|
|----------------------------------------------|
|--5-5----7-7----------------------------------|
|--5-5----7-7--------7/9------7/9--------------|
|--3-3----5-5--------5/7------5/7--------------|
G5 A5 E Em Esus2
A million miles away a million miles away
|---------------------------------------------------------------------|
|----------------9---9-9-9---8---8-8-8---7---7-7-7--------------------|
|----------------9---9-9-9---9---9-9-9---9---9-9-9--------------------|
|--5--5---7---7--9---9-9-9---9---9-9-9---9---9-9-9--4/(whammy bar 1/2)|
|--5--5---7---7—7------------7-----------7----------------------------|
|--3--3---5---5-------------------------------------------------------|
B5
|------------------------|
|------------------------|
|--4-4------------7b-----|
|--4-4----------7--------|
|--2-2—---2-4-5----------|
|------------------------|
Verse 2: (distortion)
B5 B5/A B5/G E
On my way for the day I find my heart is not for taking
|-------------------------------------0---0---0-0--------------|
|-------------------------------------0---0---0-0--------------|
|--4-4------4-4---------4-4-----------1---1---1-1--------------|
|--4-4------4-4---------4-4-----------2---2---2-2--------------|
|--2-2------0-0---------X-X-----------2---2---2-2--------------|
|-----------------------3-3-----------0---0---0-0--------------|
B5 B5/A B5/G E
And I know it’s all but gone, it only served to make me cry
B5 B5/A B5/G E
And I feel like I feel, cause it’s back here with your memory
(Chorus)
B5 G5 E5
|-----------------|
|-----------------|
|--4--------------|
|--4---5---5---2--|
|--2---5---5---2--|
|------3---3---0--| (4x)

(clean guitar)
Bm Bm/G
A million miles______ A million miles
|--0-0-0-0-0-0-0-0-0-0-0-0-0-0-0----0-0-0-0-0-0-0-0-0-0-0-0-0-0--|
|--3-3-3-3-3-3-3-3-3-3-3-3-3-3-3----3-3-3-3-3-3-3-3-3-3-3-3-3-3--|
|--4-4-4-4-4-4-4-4-4-4-4-4-4-4-4----4-4-4-4-4-4-4-4-4-4-4-4-4-4--|
|--4—4-4-4-4-4-4-4-4-4-4-4-4-4-4----4-4-4-4-4-4-4-4-4-4-4-4-4-4--|
|--2-2-2-2-2-2-2-2-2-2-2-2-2-2-2----X-X-X-X-X-X-X-X-X-X-X-X-X-X--|
|-----------------------------------3-3-3-3-3-3-3-3-3-3-3-3-3-3--|
E F#(11)
A million miles
|--0-0-0-0-0-0-0-0-0-0-0-0-0-0-0----0-0-0-0-0-0-0-0-0-0-0-0-0-0--|
|--0-0-0-0-0-0-0-0-0-0-0-0-0-0-0----0-0-0-0-0-0-0-0-0-0-0-0-0-0--|
|--1-1-1-1-1-1-1-1-1-1-1-1-1-1-1----3-3-3-3-3-3-3-3-3-3-3-3-3-3--|
|--2-2-2-2-2-2-2-2-2-2-2-2-2-2-2----4-4-4-4-4-4-4-4-4-4-4-4-4-4--|
|--2-2-2-2-2-2-2-2-2-2-2-2-2-2-2----4-4-4-4-4-4-4-4-4-4-4-4-4-4--|
|--0-0-0—0-0-0-0-0-0-0-0-0-0-0-0----2-2-2-2-2-2-2-2-2-2-2-2-2-2--|
(distortion)
G5 A5 B5
away_____
|--------------------------------------------------------------|
|--------------------------------------------------------------|
|--------------------------------------------------------------|
|--5-5----7-7--------------------------------------------------|
|--5-5----7-7------7/9-----------------------7/9---------------|
|--3-3----5-5------5/7-----------------------5/7---------------|
G5 A5 B5
|--------------------------------------------------------------|
|--------------------------------------------------------------|
|--------------------------------------------------------------|
|--5-5----7-7--------------------------------------------------|
|--5-5----7-7------7/9-----------------------7/9---------------|
|--3-3----5-5------5/7-----------------------5/7---------------|
G5 A5 B5
These things I said but you were
|--------------------------------------------------------------|
|--------------------------------------------------------------|
|--------------------------------------------------------------|
|--5-5----7-7--------------------------------------------------|
|--5-5----7-7------7/9-----------------------7/9---------------|
|--3-3----5-5------5/7-----------------------5/7---------------|
G5 A5 B5
a million miles, a million miles
|--------------------------------------------------------------|
|--------------------------------------------------------------|
|--------------------------------------------------------------|
|--5-5----7-7--------------------------------------------------|
|--5-5----7-7------7/9-----------------------7/9---------------|
|--3-3----5-5------5/7-----------------------5/7---------------|
(Chorus)
B5 G5 E5
|-----------------|
|-----------------|
|--4--------------|
|--4---5---5---2--|
|--2---5---5---2--|
|------3---3---0--| (4x)
Outro: (clean guitar)
Bm Bm/A Bm/G E
On my way for the day I find no sorrow_____
|--0------------------0-----------0------------0-0-0-0~---|
|--3------------------3-----------3------------0-0-0-0~---|
|--4------------------4-----------4------------1-1-1-1~---|
|--4------------------4-----------4------------2-2-2-2~---|
|--2-(Keep Strumming)-0-----------X------------2-2-2-2~---|
|---------------------------------3------------0-0-0-0~---|
GOOD LUCK!





Ваше мнение



Капча