Mary Pretends
By Fuel
Probably 99.9% correctly tabbed by Mark at [email protected]
Dropped D Tuning (DADGBE)
h - hammer on
p - pull off
b - bend string up
r - release bend
/ - slide up
- slide down
~ - vibrato
t - right hand tap
x - play 'note' with heavy damping
tr - trill
Intro Riff 1
|-------------0---0-0---0----------
|-------------5---5-5---6----------
|---------------------------------- X2
|----------------------------------
|-0---0---0------------------------
|-0---0---0------------------------
PM------]
Intro Riff 2
|-------------0---0-0---0-------0-0-0-0-0-0-0-0-------
|-------------5---5-5---6-------5-5-5-6-6-6-8-8-------
|-----------------------------------------------------
|-----------------------------------------------------
|-0--0--0---------------------------------------------
|-0--0--0---------------------------------------------
PM----]
Verse
|-----------------------------------
|-----------------------------------
|-/7-------------3--3-3------------- X16
|--X-------------3--3-3-------------
|-/5---0---0-----1--1-1-------------
|------0---0------------------------
PM--]
// // / / /
|----1----2----0----0----0---------------
|----1----0----0----3----3---------------
|----0----0----2----2----0---------------
|----3----0----0----0----0---------------
|----3----2----2---------3---------------
|----------------------------------------
Falling Down, Over Mine...
|----------------------------------
|----------------------------------
|----------------------------------
|---2-----7-----5------3-----------
|---2-----7-----5------3-----------
|---2-----7-----5------3-----------|----------------------------------
|----------------------------------
|----------------------------------
|--0--0-0--3--3/5--6--5--6--5--3---
|--0--0-0--3--3/5--6--5--6--5--3---
|--0--0-0--3--3/5--6--5--6--5--3---
|------------------------------------
|------------------------0-----------
|------------------------5-4-5-4-5-4-
|--0--0-0--3--3/5--6-----------------
|--0--0-0--3--3/5--6-----------------
|--0--0-0--3--3/5--6-----------------
|-------------------------------------------
|-------------------------------------------
|-------------------------------------------
|--0--0-0---3--3/5--6---5---6--5--3-33333---
|--0--0-0---3--3/5--6---5---6--5--3-33333---
|--0--0-0---3--3/5--6---5---6--5--3-33333---
Then Do Everthing Again
Then Play Intro Riff #1 3 Times
|---------------------------------
|---------------------------------
|---------------------------------
|---------------------------------
|---0--0--0--0--0-----------------
|---0--0--0--0--0-----------------
PM----------]
Solo (Aprox 2:05)
NOTE: All bends are full in solo unless otherwise indicated
|-----------------------------------
|----15----15--15--15---------------
|----17br--17b-17b-17b-------------- X4
|-----------------------------------
|-----------------------------------
|-----------------------------------
|-----------------------------------
|----17-----17---17---17------------
|----19br---19b--19b--19b----------- X2
|-----------------------------------
|-----------------------------------
|-----------------------------------
|----14---14---14---14---14---14---14------
|----17b--17b--17b--17b--17b--17b--17b-----
|------------------------------------------
|------------------------------------------
|------------------------------------------
|------------------------------------------

|---15tr--14tr---12tr----10tr----------------------------
|-------------------------------13--11--10---------------
|-------------------------------------------12--12b(hold)
|--------------------------------------------------------
|--------------------------------------------------------
|--------------------------------------------------------
|--------------------------------------------
|--------------------------------------------
|----12b(then up 1 1/2)r----10h12p10h12-----
|--------------------------------------------
|--------------------------------------------
|--------------------------------------------
|---------------------------------------------------------
|---------------------------------------------------------
|----/12b(1/2)r--10------------------10----12---12b(1/2)--
|--------------------12----10---12------------------------
|---------------------------------------------------------
|---------------------------------------------------------
|---------------------------------------------------------
|---------------------------------------------------------
|--12br--10---12---10---------10--------------------------
|------------------------12--------12-----10----12----10--
|---------------------------------------------------------
|---------------------------------------------------------
|---------------------------------
|---------------------------------
|---------------------------------
|---------------------------------
|---12-----10-10br--8--10---8~~~~~
|---------------------------------
Ending (Aprox. 2:59)
|-----------------------------------
|-----------------------------------
|-----------------------------------
|---0------3------0-----------------
|---0------3------0-----------------
|---0------3------0-----------------
|----------------0--0-0--0----------
|----------------5--5-5--6----------
|----------------------------------- X3
|-----------------------------------
|--0--0--0--------------------------
|--0--0--0--------------------------
PM----]
|---0--------------------------------
|--/8--------------------------------
|------------------7-----------------
|------------------0-----------------
|------0---0-------0-----------------
|------0---0-------0-----------------
PM--]
Email Me If There Are Any Errors Or If You Want To Request Some Other Song





Ваше мнение



Капча