Jesus or A Gun
by Fuel off of Sunburn
Tabbed by [email protected]

Dropped D Tuning

* Harmonic

Intro and Main Riff
E------||---------------------------------------------------||
B------||---------------------------------------------------||
G------||---------------------------------------------------||
D--0---||---------------------------------------------------||
A--0---||---0-3-0-5-0-0-0-----------------------------------||
E--0---||---0-3-0-5-0-0-0---*3--*3--0--*2.6--*2.6--*2.6-----||

Last Time
E----------------------------------------------------|
B----------------------------------------------------|
G-----------------*5---------------------------------|
D---------------------*5-----------------------------|
A--0-3-0-5-0-0-0------*5--*5--------0--3--0--5--0----|
E--0-3-0-5-0-0-0--------------*5----0--3--0--5--0----|

Verse
E------------------------------------------------------------|
B------------------------------------------------------------|
G------------------------------------------------------------|
D------------------------------------------------------------|
A--0--0--------------0-3-0-5-0-0-0----------------0-3-0-0----|
E--0--0--------------0-3-0-5-0-0-0----------------0-3-0-0----|
Walk away... I walk the wire

2nd part of verse
E----3-3-3-3-3--3-3-3-3-3----|
B----3-3-3-3-3--3-3-3-3-3----|
G----0-0-0-0-0--0-0-0-0-0----|
D----x-x-x-x-x--x-x-x-x-x----|
A----1-1-1-1-1--2-2-2-2-2-0--|
E-------------------------0--|
and the field are burning in the flames...

Main Riff
Verse w/ part below at the end

E--3-3-3-3-3--3-3-3-3-3--3-3-3-3-3-3-3-3-3-3-3-3-3----|
B--3-3-3-3-3--3-3-3-3-3--3-3-3-3-3-3-3-3-3-3-3-3-3----|
G--0-0-0-0-0--0-0-0-0-0--0-0-0-0-0-0-0-0-0-0-0-0-0----|
D--x-x-x-x-x--x-x-x-x-x--2-2-2-2-2-2-2-2-2-2-2-2-2----|
A--1-1-1-1-1--2-2-2-2-2--3-3-3-3-3-3-3-3-3-3-3-3-3----|
E-----------------------------------------------------|
struggling from your thoughts inside my head...

Pre Chorus Riff
E---------------------------------------------------------|
B---------------------------------------------------------|
G---------------------------------------------------------|
D---------------------------------------------------------|
A--3/5-----5-4--0----3-----3--2--------5----5--4--0-------|
E-------0----------0----0--------5--0----0-----------0----|

Chorus
E-------------------------------------------------------------------------------|
B-------------------------------------------------------------------------------|
G---------------------5---5---5---5------4-3-3-2-2-2-2-2-2-2-2-2----------------|
D---------------------5---5---5---5------4-3-3-2-2-2-2-2-2-2-2-2----------------|
A--5-5-5-5-5-5-5-5-5--3---3---3---3------2-1-1-0-0-0-0-0-0-0-0-0----------------|
E--5-5-5-5-5-5-5-5-5------------------------------------------------------------|
Tell me now who's my saving one Jesus or a Gun

Post Chorus Riff
E--0-0-0-0-0-0-0-0-0-0-0--||
B--5-5-5-5-5-5-5-5-7-7-7--||
G--x-x-x-x-x-x-x-x-x-x-x--||
D--5-5-5-5-5-5-5-5/7-7-7--||
A--3-3-3-3-3-3-3-3/5-5-5--||
E-------------------------||

Repeat the Main Riff then do this
E--------------------------------------------------------|
B--------------------------------------------------------|
G--------------------------------------------------------|
D--------------------------------------------------------|
A---0--3--0--5--0--0--0-----------------0--3--0--5--0----|
E---0--3--0--5--0--0--0---5b---0---3b---0--3--0--5--0----|

Bridge
E--------0----|--------0----|----0--------|----0--------|-----0---0----|---0---0------|
B------0------|------0------|--0----------|-0-----0-----|---0---0------|-0---0---0----|
G--2----------|-------------|-------------|-------------|--------------|--------------|
D--2----------|-------------|-------------|-------------|--------------|--------------|
A--0--------2-|-----------3-|---------3---|----------0--|-0---------2--|------------3-|
E-------------|-------------|-------------|-------------|--------------|--------------|
All that's safer falls from my favor

E--------0----|----0--------|----0--------|----0--------|-----0--------|---0----------|
B------0------|--0---0------|--0----------|-0-----------|---0----------|-0---0--------|
G-------------|-------------|-------------|-------------|--------------|--------------|
D-------------|-------------|-------------|-------------|--------------|--------------|
A-----------3-|----------0--|---------2---|----------3--|----------4---|--------------|
E-------------|-------------|-------------|-------------|--------------|-----------0--|
when it's over who
3x
E----0--------|-----0-------|----0--------|----0--------||-----0--------||
B--0---0------|---0---------|--0----------|--0----------||---0---2--0---||
G-------------|-------------|-------------|-------------||------------2-||
D-------------|-------------|-------------|-------------||--------------||
A-------------|-------------|-------------|---------0---||--------------||
E----------2--|---------3---|---------5---|-------------||--------------||
will cry for me...

Final verse ending
E--3-3-3-3-3--3-3-3-3-3--3-3-3-3-3-3-3-3-3-3-3-3-3----|----------------------|
B--3-3-3-3-3--3-3-3-3-3--3-3-3-3-3-3-3-3-3-3-3-3-3----|--13-13-13-13-13-13---|
G--0-0-0-0-0--0-0-0-0-0--0-0-0-0-0-0-0-0-0-0-0-0-0----|--12-12-12-12-12-12---|
D--x-x-x-x-x--x-x-x-x-x--2-2-2-2-2-2-2-2-2-2-2-2-2----|--10-10-10-10-10-10---|
A--1-1-1-1-1--2-2-2-2-2--3-3-3-3-3-3-3-3-3-3-3-3-3----|--10-10-10-10-10-10---|
E-----------------------------------------------------|--10-10-10-10-10-10---|
everything you push inside my head.... I'll reject it until I'm dead

End on This
E---------------------0---|
B---------------------0---|
G---------------------0---|
D---------------------0---|
A--5-0-0-6-0-0-7-0-0--3---|
E--5-0-0-6-0-0-7-0-0------|





Ваше мнение



Капча