Hemorrhage
By: Fuel
Tabbed by Aaron Page ([email protected])
10/10/00 6:15pm
Hey ppl,
I heard this song on Mtv and i got the cd straight away.
It is reasonably easy, it is alot like there first songs.
I am not sure about the intro but when i found out what is going on
i will bring it in.
N e ways enjoy!!
Verse:
e-------------------------0------------------------------------------0---------------------|
B------------------3------------3------------------------------3-------3-------------------|
G------------0-----------------------0--------------------0------------------0-------------|
D-------4--------------------------------------------4----------------------------4--------|
A--------------------------------------------0---------------------------------------------|
E--3---------------------------------------------------------------------------------------|
Pre-chorus: Em Dsus2 A Asus4 2x (don't play Asus4 2nd time)
Chorus: (both grts.) G Dsus2 A Fm G Dsus2 Fm
Repeat Verse
Pre-Chorus
Chorus with Elec. playing power chords on the bass notes during
the verse and doubling on the chorus.
Interlude: G5 A5 B5 A5, B5 C#5 D5 C#5, D5 E5(XII) F#5 (XIV) E5, F#5
Solo: (With tremolo effect & heavy dis)
e----------------------------19--------------19---------------------------------------|
B--15---------------15------------15----------------------15-----------------15-------|
G---------16---------------------------------------------------------18---------------|
D-------------------------------------------------------------------------------------|
A-------------------------------------------------------------------------------------|
E-------------------------------------------------------------------------------------|
E---19-------------------19---------------19-------------19p17--------19p17-----------|
B------------15------------------15----------------15---------------------------15----|
G-------------------------------------------------------------------------------------|
D-------------------------------------------------------------------------------------|
A-------------------------------------------------------------------------------------|
E-------------------------------------------------------------------------------------|
e---------14-----------------14--------------------14------------------14----------14-|
B---15----------15---14-----------14----12-------------12---14-----------14---15------|
G-------------------------------------------------------------------------------------|
D-------------------------------------------------------------------------------------|
A-------------------------------------------------------------------------------------|
E-------------------------------------------------------------------------------------|
e-----------------------------------12h14-----15-----14-------------------------------|
B----15---14b---15b---17b-------------------------------------------------------------|
G-------------------------------------------------------------------------------------|
D-------------------------------------------------------------------------------------|
A-------------------------------------------------------------------------------------|
E ------------------------------------------------------------------------------------|
Repeat Chorus about 5x
Ending with the outro solo during the last few choruses
(just go back to G to repeat the chorus)
Outro solo:
e--------------------------------------------------------------------------------|
B--------------------------------------------------------------------------------|
G-----6---7----------6---7----------6------------------6-------------------------|
D----------------------------------------7------------7-----7--------------------|
A--------------------------------------------------------------------------------|
E -------------------------------------------------------------------------------|
e--------------------------------------------------------------------------------|
B--------------------------------------------------------------------------------|
G----6---7----------6----7----------6--------6---------------6-------------------|
D-----------------------------------------7-------7-------7---------7------------|
A--------------------------------------------------------------------------------|
E -------------------------------------------------------------------------------|
e--------------------------------------------------------------------------------|
B--------------------------------------------------------------------------------|
G----6---7----------6----7----------6--------------------6-----------------------|
D-----------------------------------------7------------7-------7-----------------|
A--------------------------------------------------------------------------------|
E -------------------------------------------------------------------------------|
e--------------------------------------------------------------------------------|
B--------------------------------------------------------------------------------|
G----6---7----------6----7----------6--------------------------------------------|
D-------------------------------------7------------------------------------------|
A--------------------------------------------------------------------------------|
E -------------------------------------------------------------------------------|
Lyrics:
Verse
Memories are just where you need them...
Drag the waters,
till the depths give up thier dead
What did you expect to find?
Was it something you left behind...
Don't you remember anything I said when I said
Pre-Chorus
To fall away, leave me to myself
To fall away, an leave love bleedin'
Chorus
in my hands, in my hands again
Leave love bleedin' in my hands,
in my hands, love lies bleedin'
Verse
I hold it now, I feel the dangers,
am I the only place that you've left to go?
She cries that life is like,
some movie in black and white,
dead actors, naked lies
Over and over and over again she cries....
Pre-Chorus
To fall away, leave me to myself
To fall away, leave love bleedin'
Chorus
in my hands,in my hands again
Leave love bleedin' in my hands,
in my hands, love lies bleedin'
Interlude
And I wanted...you turn away,
you don't remember...but I do
You never even tried...
Solo
Pre-Chorus
To fall away, leave me to myself
To fall away, leave love bleedin'
Chorus
in my hands, in my hands again
Leave love bleedin' in my hands,
in my hands again
Leave love bleedin' in my hands,
in my hands again....Ohhhooohhhoohhhhhhohhh
Ohhhooohhhoohhhhhhohhh......
Outro solo
Chord Chart
Em -022000 E5 (XII) -1214xxxx
Dsus2 -x00230 F#5 (XIV) -1416xxxx
A -x0222x E5 -02xxxx
Asus4 -x0224x F#5 -24xxxx
G -3x0003 C#5 -1012xxxx
Fm -244222
Bm -x24432
G5 -35xxxx
D5 -57xxxx
B5 -79xxxx
Thanx ppl
p.s Remember if ya want something tabbed e-mail me!!!





Ваше мнение



Капча