------------------------------------------------------------
Fuel - Going To California (Originally Led Zepplin)
------------------------------------------------------------
By: Paul McDonell
The Fuel version sounds a lot different to the original
I think this is right, this is my first tab ever so forgive me
if its wrong, feel free to send any corrections or hate mail to me
Intro/chorus/whole song
e|--------0-----0-----0---------------------|
B|----------3-----3-----3---3---------------|
G|----2-------2-----2-----2-----------------|
D|--0---0-----------------------------------|
A|------------------------------------------|
E|------------------------------------------|
Repeat a heapa times then play this
e|--------0--------0-2-3-2------------|
B|----------3------3-3-3-3------------|
G|----2-------2----2-2-2-2------------|
D|--0---0----------0-0-0-0------------|
A|------------------------------------|
E|------------------------------------|
That is repeated for almost the whole song,
there are some chords played under the singing
but I cant figure them out, if anyone can, please
email me [email protected]
============================================================





Ваше мнение



Капча