---------------------------------------------------------------------------------
FALLS ON ME – Fuel
---------------------------------------------------------------------------------
Tabbed by: Kevin Buzby-18 Oct 2003
E-Mail: [email protected]
Tuning: Standard EADGBe
D Dsus4 D
Intro and verse: _ _
Fmaj7 Am | | | |
|----------0-----|---------0--------|-2-2-x-2-3-3-x--3--3p2-|
|----1---1---1---|-------1---1------|-3-3-x-3-3-3-x--3--3-3-|
|.-----2-------2-|---2---------2---.|-2-2-x-2-2-2-x--2--2-2-|
|.-3-------------|-----2---------0-.|-0-0-x-0-0-0-x--0--0-0-|
|----------------|0~----------------|-----------------------|
|----------------|------------------|-----------------------|
Verse 1:
Fmaj7 Am
You see me hanging round
Fmaj7 Am Fmaj7 Am D-Dsus4-D
Starting to swear about this black hole of a dark field
Fmaj7 Am Fmaj7 Am Fmaj7
And silently within hands touchin skin sharp
Am D-Dsus4-D G
Breaks my disease and i can breathe
On word “breathe”, strum this G chord into the chorus:
G
|-5---------------|------------------|-----------------------|
|-3---------------|------------------|-----------------------|
|-0---------------|------------------|-----------------------|
|-0---------------|------------------|-----------------------|
|-2---------------|------------------|-----------------------|
|-3---------------|------------------|-----------------------|
Chorus:
C5 G5 A5 F5
|-------|-------|-------|-------|
|-------|-------|-------|-------|
|-5-----|-------|-------|-------|
|-5-----|-5-----|-7-----|-3-----|
|-3-----|-5-----|-7-----|-3-----|
|-------|-3-----|-5-----|-1-----|
C5 G5
And all of your ways
A5 F5
All you dream falls on me
It falls on me
C5 G5
And your beautiful sky
A5
The light you breathe
F5
Falls on me
F5(muted for a bit until verse progression)
It falls on me ahha
(Verse progression played between chorus and verse 2)
Verse 2:
(Same progression as verse 1 but muted in the arpeggios)
Fmaj7 Am
I feel like a pain
Fmaj7 Am
It draws me in again
Fmaj7 Am D-Dsus4-D
Sqaushes all my worst of me
Fmaj7 Am
Darkness in my veins
Fmaj7 Am
I never could explain
Fmaj7 Am D-Dsus4-D
And I wonder if you have ever seen
G
And still believe

On word “believe”, you have that G-type chord again.
Chorus 2:
C5 G5 A5 F5
|-------|-------|-------|-------|
|-------|-------|-------|-------|
|-5-----|-------|-------|-------|
|-5-----|-5-----|-7-----|-3-----|
|-3-----|-5-----|-7-----|-3-----|
|-------|-3-----|-5-----|-1-----|
C5 G5
And all of your ways
A5 F5
All you dream falls on me
It falls on me
C5 G5
And your beautiful sky
A5
The light you breathe
F5
Falls on me

It falls on me
Bridge:(I suggest using open chords instead of power chords here-sounds better)
G Am F E
|-3----0-----1----0--|
|-3----1-----1----0--|
|-0----2-----2----1--|
|-0----2-----3----2--|
|-2----0-----3----2--|
|-3----x-----1----0--|
G Am
Am I that strong
G Am
To carry on
G Am
Have I changed your life
G F
Have I changed my world
E
Could you save me ahhhhha
Chorus 3:
C5 G5 A5 F5
|-------|-------|-------|-------|
|-------|-------|-------|-------|
|-5-----|-------|-------|-------|
|-5-----|-5-----|-7-----|-3-----|
|-3-----|-5-----|-7-----|-3-----|
|-------|-3-----|-5-----|-1-----|
C5 G5
And all of your ways
A5 F5
All you dream falls on me
It falls on me
C5 G5
And your beautiful sky
A5
The light you breathe
F5
Falls on me

It falls on me
C5 G5
And all of your ways
A5 F5
All you dream falls on me
It falls on me
C5 G5
And your beautiful sky
A5
And the light you breath
F5
Falls on me

It falls on me
F5 A5 F5 A5 F5 A5 G5 F5 A5 F5 A5 F5 A5 G5 F5 A5 F5 A5 F5 A5 G5
ahhhhaha yea ahhhah yea
Outro:
Fmaj7 Am Dsus2
|----------0-----|---------0--------|-0~~-----|
|----1---1---1---|-------1---1------|-3~~-----|
|.-----2-------2-|---2---------2---.|-2~~-----|
|.-3-------------|-----2---------0-.|-0~~-----|
|----------------|0~----------------|---------|
|----------------|------------------|---------|





Ваше мнение



Капча