It's Come to This
Fuel
Dropped D Tuning
Intro and Verse 2x
E------------------8-8-8-8-8-8-8-8----||
B--10-10-10-10-10--9-9-9-9-9-9-9-9----||
G---7--7--7--7--7--7-7-7-7-7-7-7-7----||
D---0--0--0--0--0---------------------||
A---0---------------------------------||
E---0---------------------------------||
Chorus
E--0---------0-2-2--4-4-4-----4-0-0-5-4-4-4-4-4-3-2-3-5-5-3-2-3-5-5-5--|
B--0---------0-0-0--0-0-0-----0-0-0-0-0-0-0-0-0-0-0-0-0-0-0-0-0-0-0-0--|
G--2--2---2--x-x-x--x-x-x--6--x-x-x-6-6-6-6-6-6-4-4-4-4-4-4-4-4-4-4-4--|
D--2----2----4-4-4--6-6-6--6--6-6-6-7-7-7-7-7-7-5-5-5-5-5-5-5-5-5-5-5--|
A--0-------------------------------------------------------------------|
E----------------------------------------------------------------------|
I fear I've wasted all my sun, I fear I've wasted all my time, everything is
faded....
E-----0--0-2-2-2-2-2-2--4-0-0-5-5-5-4-4-4--|
B-----0--0-0-0-0-0-0-0--0-0-0-0-0-0-0-0-0--|
G--2--2--2-4-4-4-4-4-4--x-x-x-6-6-6-6-6-6--|
D--2--2--2-4-4-4-4-4-4--6-6-6-7-7-7-7-7-7--|
A--0---------------------------------------|
E------------------------------------------|
I fear I've wasted all my sun, I fear I wasted all my time
E--3-3-3-3-3-3-3-3-3-3-3-3-3-3-3-3-3-3-3-3-|
B--3-3-3-3-3-3-3-3-3-3-3-3-3-3-3-3-3-3-3-3-|
G--0-0-0-0-0-0-0-0-0-0-0-0-0-0-0-0-0-0-0-0-|
D--2-2-2-2-2-2-2-2-2-2-2-2-0-0-0-0-0-0-0-0-|
A--3-3-3-3-3-3-3-3-3-3-3-3-2-2-2-2-2-2-1-1-|
E------------------------------------------|
held my eyes closed for too long
Interlude
E-10-10-10-10-10-12-12-12-12-12-12--14--14--14--14--14--16--16--16--16--16--16--|
B--7--7--7--7--7-10--9--9--9--9--9--12--10--10--10--10--14--12--12--12--12--12--|
G--7--7--7--7--7--9--9--9--9--9--9--11--11--11--11--11--13--13--13--13--13--13--|
D-------------------------------------------------------------------------------|
A-------------------------------------------------------------------------------|
E-------------------------------------------------------------------------------|
E-----------3-------3-------3-----|
B-----------3-------3-------3-----|
G-----------0-------0-------0-----|
D---------2------0-------0-----1--|
A--0-2-3-------2-------1-------1--|
E------------------------------1--|
E--3-3-3-3-3-3-3-3-3-3-3-3-3-3-3-3-3-3-3-3-3-3-3-3-3-3-3-3-3-3-3-3-3-3-3-3-3---|
B--3-3-3-3-3-3-3-3-3-3-3-3-3-3-3-3-3-3-3-3-3-3-3-3-3-3-3-3-3-3-3-3-3-3-3-3-3---|
G--0-0-0-0-0-0-0-0-0-0-0-0-0-0-0-0-0-0-0-0-0-0-0-0-0-0-0-0-0-0-0-0-0-0-0-0-0---|
D--2-2-2-2-2-2-2-2-2-2-2-2-0-0-0-0-0-0-0-0-0-0-0-0-0-0-0-0-0-0-0-0-0-0-0-0-0---|
A--3-3-3-3-3-3-3-3-3-3-3-3-2-2-2-2-2-2-2-2-2-2-2-2-1-1-1-1-1-1-1-1-1-1-1-1-1---|
E------------------------------------------------------------------------------|
held my eyes closed for too long
E------------------------------------------------------------------------5-5-5-5-5-5-5-5-5-5-|
B----------0-----------3-3-3-3-3-3-3-3-3-3-3-3-3-3-2-2-2-2-2-2-2-2-2-2-2-0-0-0-0-0-0-0-0-0-0-|
G----------0-----------3-3-3-3-3-3-3-3-3-3-3-3-3-2-2-2-2-2-2-2-2-2-2-2-2-0-0-0-0-0-0-0-0-0-0-|
D--0--7/3--0-----------3-3-3-3-3-3-3-3-3-3-3-3-3-2-2-2-2-2-2-2-2-2-2-2-2-0-0-0-0-0-0-0-0-0-0-|
A--0--7/3--x-0-7/10/5--1-1-1-1-1-1-1-1-1-1-1-1-1-0-0-0-0-0-0-0-0-0-0-0-0-x-x-x-x-x-x-x-x-x-x-|
E--0--7/3--5-0-7/10/5----------------------------------------------------5-5-5-5-5-5-5-5-5-5-|





Ваше мнение



Капча