Fuel = NOTE: This tab is very simaliar to GUITAR WORLD'S
Bad Day = transcription of the song, but it's not. If you were to
Something Like Human = play this song with only one guitar, I suggest you use
====================== an acoustic guitar and play the rhythm parts.
Chords Used
A: X02220 Asus2: X02200 F#m7: 2(0)2220 F#m11: 2(0)2200 D: XX0232
Dm(maj7): XX0221 Dm6: XX0201 E: 022100 Esus4: 022200 Bm: X24432
Bsus2: X24422 Fmaj7: 133400 G6: 355400 Dm: X57765
======================
A Asus2 A~
Chorus: (clean electric)
A Asus2 A F#m7 F#m11 F#m7
Had a bad day again She said I would not understand
D Dm(maj7) Dm6 A Asus2 A
She left a note and said I'm sorry I I had a bad day again
(Hold the A only in the fist chorus)
Verse: (doubled by acoustic)
A Asus2 A
Spilled her coffee, broke her shoe lace Smeared the lipstick on her
F#m7 F#m11 F#m7 D Dm(maj7) Dm6
face Slammed the door and said I'm sorry I I had a bad day
A Asus2 A
again
Pre-Chorus: with another guitar(distortion) and guitar 1 stays clean throughout the whole song
D E F#m7 Esus4/E D F#m7
And she swears there's nothing wrong, I hear her playing that same old song
Esus4/E D Bm Bsus2 Bm
She puts me off and puts me on and
Chorus with 2nd guitar playing fill 1
fill 1
A part F#m part D-Dm part
harmonics................... harm.. harm..............
|----5----5--5-----5--5--5-\-|--(2)/5----5-------------|-/10----10-----------|
|---------------5------------|-------------5-----------|-----------10--------|
|----------------------------|-------------------------|--------------11-10--|
|----------------------------|-------------------------|---------------------|
|----------------------------|-------------------------|---------------------|
|----------------------------|-------------------------|---------------------|
Solo:
A part F#m7 part
|----------------------------|----------------------------------|
|----------------------------|----------------------------------|
|--------6-------------------|--------6-------------------------|
|--6--7----7--6h7--6---------|--6--7-----6h7-6h7-6h7p6~---------|
|---------------------7------|----------------------------------|
|----------------------------|----------------------------------|
D Fmaj7 G6 A part
|------------------------------|----------------------------------|
|------------------------------|----------------------------------|
|-------6----------------------|--------6--------9----------------|
|--6--7----7--6h7--6-----------|--6--7----7--6--------------------|
|---------------------7h8h7----|----------------------------------|
|------------------------------|----------------------------------|
Pre-chorus
Chorus with fill 1 and another guitar behind all the guitars playing the solo
Bm /Dm
She left a note and said I'm sorry I I had a bad day___
Outro solo:
A part F#m7 part
|--------------------------------|------------------------------------|
|--------------------------------|------------------------------------|
|--------6-----------------------|--------6---------------------------|
|--6--7----7---6h7-(6)-----------|--6--7----7--6h7-6h7-6h7--6---------|
|----------------------7---------|------------------------------------|
|--------------------------------|------------------------------------|
slowing down
D Fmaj7 G6 A
|--------------------------------|------------------------------------|
|--------------------------------|------------------------------------|
|-------6------------------------|------------------------------------|
|--6--7---7--6h7-(6)-------------|--7---------------------------------|
|---------------------7h8-7--(0)-|------------------------------------|
|--------------------------------|------------------------------------|
| 3rd guitar/or just have the solo guitar play it
|--------------------------------|------------------------------------|
|--------------------------------|------------------------------------|
|--------------------------------|------------------------------------|
|--------------------------------|--7---------------------------------|
|--------------------------------|--7---------------------------------|
|--------------------------------|--5---------------------------------|

NOTE: During the 2nd Chorus, solo, 3rd chorus and outro solo an acoustic
guitar is playing along with the rhythm guitar.

TIMOTHY MAXWELL 4/8/2002





Ваше мнение



Капча