Song: Horrible
Artist: Frente
Tabbed by Andy Kelts [email protected]
Here's the bassline throughout. I tried to indicate rhythm by putting the numbers
together. The ones with a - between indicate eighth notes, the ones withough a -
between indicate triplets. Listen to the song and you'll understand.
G|0-0-000-0-0-000-0-0-000-0-0-000-------------------------------------------------
D|--------------------------------2-2-222-2-2-222-----------------0-0-000-0-0-000-
A|------------------------------------------------0-0-000-0-0-000-----------------
E|--------------------------------------------------------------------------------
G|-----------------------------------------------------------------
D|-0-0-000-0-0-000-------------------------------------------------
A|-----------------1-1-111-1-1-111-----------------3-3-333-3-3-333-
E|---------------------------------3-3-333-3-3-333-----------------
Here's the main guitar riff. There are few variations on it throughout the song.
Once again, listen to it and you'll understand.
e|-0-3-0-3-0-3-0-3-0---0---0---0---2---2---2---2---1---1---1---1-----5---5---5---5---5-
B|-------------------2---2---2---2---3---3---3---3---3---3---3---3-3---3---3---3---3---
G|-------------------------------------------------------------------------------------
D|-------------------------------------------------------------------------------------
A|-------------------------------------------------------------------------------------
E|-------------------------------------------------------------------------------------
e|--5---5---5---------------------------------
B|3---3---3-----------------------------------
G|------------0-0-0-0-0-0-0-0-0-0-0-0-0-0-0-0-
D|--------------------------------------------
A|--------------------------------------------
E|--------------------------------------------




Ваше мнение



Капча