Wishing Well - Free (1972)
(Rodgers,Kirke,Kossoff,Brundrick,Yamauchi)
Album: Heartbreaker
Transcribed by Gareth Penn
[email protected]
------------------------------------------------------
------------------------------------------------------
--7--5--------------------------7--5------------------
--------7--5--r--7--5--3--0--r--------7--5------------

------------------------------------------------------
------------------------------------------------------
------------------------------------------------------
--3--3--3--3--3--3--3--3--0--0--0--0--0--0--0--0------
Verse
----------------------------------------------------------------------------
-----------------------------------------------10----------------12---------
--------------------------------------------10----------------12------------
--0--0--0--0--0--0--0--0--0---------------8----------------10------------0--
Chorus
-----------------------------------------------
----------10------------12----------14-14------
-------10------------12----------14-------14---
-----8------------10----------12-------------12
---------------------------------------------------------------------
---------------------------------------------------------------------
-----------------------------7--5--------------------------7--5------
-----8-----------10----------------7--5--r--7--5--3--0--r--------7-5-
------------------------------------------------------
------------------------------------------------------
------------------------------------------------------
--3--3--3--3--3--3--3--3--0--0--0--0--0--0--0--0------
Verse 2
--------------------------------------------------------------------------------
-------------------------------------------------------10----------------12-----
----------------------------------------------------10----------------12--------
0--0--0--0--0--0--0--0----------------------------8----------------10-----------

Chorus 2
------------------------------------------------
-------10-------------12-------------14-14------
----10-------------12-------------14-------14---
--8-------------10-------------12-------------12
---------------------------------------------------------------------
---------------------------------------------------------------------
-----------------------------7--5--------------------------7--5------
-----8-----------10----------------7--5--r--7--5--3--0--r--------7-5-
Bridge
------------------------------------------------------
------------------------------------------------------
------------------------------------------------------
--5--5--5--5--5--5--5--5--1----------------3-------5--
---------------------------
---------------------------
---------------------------
--1---------3--------5-----
------------------------------------
--------3--------5--------7--7------
-----3--------5--------7--------7--- repeat 4 times then:
--1--------3--------5--------------5

----------------------------------------------------------
----------------------10----------------------------12----
-------------------10----10----------------------12----12-
--8--8--8--8--8--8-------------10-10-10-10-10-10----------

------------------------------------
--------3--------5--------7--7------
-----3--------5--------7--------7---
--1--------3--------5--------------5

--------------------------------------------------
---------------3------------5-----------7--7------
------------3------------5-----------7--------7---
---------1------------3-----------5--------------5
---------------------------------------------------------------
-------------------------------------7--5----------------------
-------------------------------------------7--5--r--7--5--3--0-
-------------1-----------3-------------------------------------

Finish repeating this riff till end
---------------------------
--7--5---------------------
--------7--5--r--7--5--3--0
---------------------------




Ваше мнение



Капча