The Stealer
Words and Music by
Paul Rodgers, Andy Fraser & Paul Kossoff
This is the first song ive tabbed so there might be mistakes but I think
everything is there.
| = Bar line
~ = vibrato or held note
x = percussive note with no pitch; muted note
. = staccato; mute the note immediately after striking it
h = hammer on p = pull off
s = slide
b = bend string up to indicated pitch/fret
r = release bend to indicated string/fret
/ = slide up from infinity
= slide down into infinity
Introduction
E---------------------------|---------------------------|--------------------------|-------------------------|
B---------------------------|---------------------------|--------------------------|-------------------------|
G----------------2----------|-----------0---------------|----------------2---------|--------------0----------|
D----------------2--------=-|-----------0---------------|----------------2---------|--------------0-------0--|
A-----3p0----------------==-|---3s5----------5/7----=--|-----3h0------------------|-------3s5------3s5------|
E---------------------------|--------------------------|--------------------------|-------------------------|
Main riff
------------------------------------|------------------------------------|------------------------------------|
------------------------------------|------------------------------------|------------------------------------|
--------------------2---------------|--------------------2---------------|--------------------2---------------|
--------------------------------0---|--------------------------------0---|--------------------------------0---|
--5s3----------0p3-----3s5----------|---5s3---------0p3-----3s5----------|--5s3----------0p3-----3s5----------|
-------5-3-5-----------------------|-------5-3-5-------------------------|------5-3-5-------------------------|
------------------------------------|------------------------------------|------------------------------------|
------------------------------------|------------------------------------|------------------------------------|
---------------------2--------------|-----------------------2------------|--------------------2---------------|
--------------------------------0---|--------------------------------0---|--------------------------------0---|
--5s3----------0p3-----3s5----------|---5s3---------0p3-----3s5----------|--5s3----------0p3-----3s5----------|
-------5-3-5------------------------|-------5-3-5------------------------|------5-3-5-------------------------|
------------------------------------|------------------------------------|------------------------------------|
------------------------------------|------------------------------------|------------------------------------|
-----------------------2------------|-----------------------2------------|-----------------------2------------|
--------------------------------0---|--------------------------------0---|--------------------------------0---|
--5s3----------0p3-----3s5----------|---5s3---------0p3-----3s5----------|--5s3----------0p3-----3s5----------|
-------5-3-5------------------------|-------5-3-5------------------------|------5-3-5-------------------------|
------------------------------------|------------------------------------|
------------------------------------|------------------------------------|
--------------------2---------------|--------------------2---------------|
--------------------------------0---|--------------------------------0---|
--5s3----------0p3-----3s5----------|---5s3---------0p3-----3s5----------|
-------5-3-5------------------------|-------5-3-5------------------------|
Chorus
--------------------------------------|--------------------------------------|--------------------------------------|
--------------------------------------|--------------------------------------|--------------------------------------|
-------------------------2--------0---|----------------0----2--4-------------|--------------------------------------|
----------------------------/12-------|--12s10---------0----0--0-----5s4-----|--------0-----------------------0-----|
--5s3------------3p0------------------|------------12------------------------|------------------------3s5-----------|
--------5-3-5-------------------------|--------------------------------------|--------------------------------------|
Back to main riff
------------------------------------|------------------------------------|------------------------------------|
------------------------------------|------------------------------------|------------------------------------|
--------------------2---------------|--------------------2---------------|--------------------2---------------|
--------------------------------0---|--------------------------------0---|--------------------------------0---|
--5s3----------0p3-----3s5----------|---5s3---------0p3-----3s5----------|--5s3----------0p3-----3s5----------|
-------5-3-5------------------------|-------5-3-5------------------------|------5-3-5-------------------------|
------------------------------------|------------------------------------|------------------------------------|
------------------------------------|------------------------------------|------------------------------------|
--------------------2---------------|--------------------2---------------|--------------------2---------------|
--------------------------------0---|--------------------------------0---|--------------------------------0---|
--5s3----------0p3-----3s5----------|---5s3---------0p3-----3s5----------|--5s3----------0p3-----3s5----------|
-------5-3-5------------------------|-------5-3-5------------------------|------5-3-5-------------------------|
------------------------------------|------------------------------------|------------------------------------|
------------------------------------|------------------------------------|------------------------------------|
--------------------2---------------|--------------------2---------------|--------------------2---------------|
--------------------------------0---|--------------------------------0---|--------------------------------0---|
--5s3----------0p3-----3s5----------|---5s3---------0p3-----3s5----------|--5s3----------0p3-----3s5----------|
-------5-3-5------------------------|-------5-3-5------------------------|------5-3-5-------------------------|
Chorus before first solo
--------------------------------------|--------------------------------------|--------------------------------------|
--------------------------------------|--------------------------------------|--------------------------------------|
-----------------------2--------0-----|----------------0----2--4-------------|--------------------------------------|
----------------------------/12-------|--12s10---------0----0--0-----5s4-----|--------0-----------------------------|
--5s3------------3p0------------------|------------12------------------------|--------------------------------------|
--------5-3-5-------------------------|--------------------------------------|--------------------------------------|
First Guitar Solo
--------------------------------------|--------------------------------------|--------------------------------------|
--------------------------------------|--------------------------------------|--------------------------------------|
-----0h2- ~~ -------------------------|-------2s5- ~~ -------7- ~~ ----------|---7s9- ~~ ---------------------------|
--------------------------------------|--------------------------------------|--------------------------------------|
--------------------------------------|--------------------------------------|--------------------------------------|
--------------------------------------|--------------------------------------|--------------------------------------|
----------------------------------------------------------|-----------------------------------------------------------|
---10b--10br---------10b--b10-------10brp8----------------|---10- ~~ -------------------------------------------------|
----------------------------------------------------------|-----------------------------------------------------------|
----------------------------------------------------------|-----------------------------------------------------------|
----------------------------------------------------------|-----------------------------------------------------------|
----------------------------------------------------------|-----------------------------------------------------------|
----------------------------------------------------------|----------------------------------------------------------|
--------8h10p8---7----8----8-------7h8p7------------------|---7s5- ~~ ------------------------------------8----------|
----------------------------------------------------------|------------------------------------------------b7r-------|
----------------------------------------------------------|----------------------------------------------------------|
----------------------------------------------------------|----------------------------------------------------------|
----------------------------------------------------------|----------------------------------------------------------|
----------------------------------------------------------|----------------------------------------------------------|
----------------------------------------------------------|----------------------------------------------------------|
-------------5h7-----------------5h7p5s2-------------------|---------------------------------------------------------|
----------------------------------------------------------|----------------------------------------------------------|
----------------------------------------------------------|----------------------------------------------------------|
----------------------------------------------------------|----------------------------------------------------------|
Repeat all the main riff and choruses followed by the second solo
Chorus before second guitar solo
------------------------------------|-----------------------------------|------------------------------------|
------------------------------------|-------------------------3---------|----5------------------3------------|
--------------0---------------------|-----2-------------------0---------|----0------------------0------------|
----0---------0---------------------|-----2-------------------4---------|----5------------------4------------|
------------------------------------|-----0-----------------------------|------------------------------------|
------------------------------------|-----------------------------------|------------------------------------|
------------------------------------|------------------------------------|------------------------------------|
------------------------------------|------------------------------------|------------------------------------|
-------------7b---------------------|--------b7rp5---------7-------------|--7-- ~~ ----7--------------x-------|
------------------------------------|------------------------------------|----------------7-------------------|
------------------------------------|------------------------------------|------------------------------------|
------------------------------------|------------------------------------|------------------------------------|
------------------------------------|------------------------------------|--------------15--------------------|
----------13p12---------------------|------------------------------------|--15br---b15-----15b--15b-----------|
-------------------14--12--14-------|--- ~~~~~~~~~ ----------------------|------------------------------------|
------------------------------------|------------------------------------|------------------------------------|
------------------------------------|------------------------------------|------------------------------------|
------------------------------------|------------------------------------|------------------------------------|
------------------------------------|---------15-------------------------|------------------------------------|
------------------------------------|--15b----------15brp13---15---------|-----13p12--------------------------|
------------------------------------|------------------------------------|---------------14--12--14- ~~ ------|
------------------------------------|------------------------------------|------------------------------------|
------------------------------------|------------------------------------|------------------------------------|
------------------------------------|------------------------------------|------------------------------------|
------------------------------------|------------------------------------|------------------------------------|
------------8-----------------------|-------------------8br--------------|--8b----------------8br-------------|
------7s9----9s7---5---7b--------5-|------------------------------------|------------------------------------|
---------------------------------7-|--7---------------------------------|------------------------------------|
------------------------------------|------------------------------------|------------------------------------|
------------------------------------|------------------------------------|------------------------------------|
--5---------------------------------|------------------------------------|-------15---------------------------|
-----8------------------------------|----5-----------8----8----8---------|--15b------15h17br-----13--15-------|
--------7br--b7rp5------7-5---------|----5-----5--7b---7b---7b---7------|---------------------------------14-|
--------------------7-------7-5-----|-7-----7---------------------------|------------------------------------|
------------------------------------|------------------------------------|------------------------------------|
------------------------------------|------------------------------------|------------------------------------|
---------15---15--------------15b---|----15brbr--------15br----b15r------|
----15b-------15brp13---------------|------------------------------------|
-------------------------14---------|------------------------------------|
------------------------------------|------------------------------------|
------------------------------------|------------------------------------|
------------------------------------|------------------------------------|
---15b ~~~ --15--------15-------15---|------15-----15-------15------15-------------------------|
-----------------b15r------b15r------|-b15r----b15r----b15r----b15r----b15rp13---15------------|
-------------------------------------|---------------------------------------------------------|
-------------------------------------|---------------------------------------------------------|
-------------------------------------|---------------------------------------------------------|
-------------------------------------|---------------------------------------------------------|
-----------------------------------------------------|------------------------------------|-----------------------------------||
--15 ~~ --13p12--------------------------------------|------------------------------------|-----------------------------------||
-----------------------14-12-14 ~~ ------------------|------------------------14---------|-----2-----------------------------||
-----------------------------------------------------|-----------------------------------|-----2-----------------------------||
-----------------------------------------------------|------------------------------------|-----0-----------------------------||
-----------------------------------------------------|------------------------------------|-----------------------------------||




Ваше мнение



Капча