Intro
E|---------------------------------------------------------------------------------------
B|----------------------------------------------------------------------------3b---------
G|----------------------------------------------------------------------------3b---------
D|-------5----------------------------------------------5----------5---------------------
A|-------5-----3----X---3---3----5------------------------------------------------3---3--
E|3--3----------------------------------6b-----3-------------3----------3----------------
-----------------------------------------------------------------------------------------
---------------------------------------------------------------------------------------5b
---------------------------------------------------------------------------------------5b
--------------------5------------------------------------------5---------------5---------
5-------------------5----3---X----3----3-----5-------------------------------------------
----6b----3----3----------------------------------6b---3---------------3------------3----
Repeat main riff for several bars...
1st Solo
-----------------------------------------------------------------------------------------
-------------------13-----------13--------------13---------------------------------------
-------10---12b----------12b-----------12b-------------12b~~~---12b12p10--12~~~---12---10
12~~~------------------------------------------------------------------------------------
-----------------------------------------------------------------------------------------
-----------------------------------------------------------------------------------------
-------------------------------------------------------10--------------------------------
-------------------------------------------------------------h13p10----------------------
-----10\9--------------------------------------------------------------12b---12p10--12---
12------------12----10----12~~~~12---10--------------------------------------------------
-------------------------------------------12----10\-------------------------------------
-----------------------------------------------------------------------------------------
------------------------||
10---10----13B~~~~------||
10---10-----------------||
------------------------||
------------------------||
------------------------||
The other 2 solos are improvised round the top of a scale, like this one, so just use the same finger techniques and improvise.
Transcribed by Paul Chambers




Ваше мнение



Капча