e-----------------------------------------------------------|
b-----------------------------------------------------------|
g-----------------------------------------------------------|
d-----------------------2-----------------------------------|
a---------------------2-------------------------------------|
E--3--2--0-0---0-0--------3---2---0-0---0-0-----------------|
e-----------------------------------------------------------|
b-----------------------------------------------------------|
g-----------------------------------------------------------|
d-----------------------2-----------------------------------|
a---------------------2-------------------------------------|
E--3--2--0-0---0-0--------3---5--2--------------------------|
why don't you freeeeeeee meeeeeeeeeee
and so on
b=bend
h=hold
f=fast
solo ive only got a bit it sounds like this
e------------------------------------------------------------------|
b------------------------------------15bh17----15b17--4times fast--|
g---14bh16----14b16--4times fast-----------------------------------|
d------------------------------------------------------------------|
a------------------------------------------------------------------|
E------------------------------------------------------------------|
thats all i have so if you have corrections

EC IS GOD!!!!!!!!!!!!!!!1




Ваше мнение



Капча