-------------------------------------------------------------------------------
Don't say you love me - Free (Fire and Water)
-------------------------------------------------------------------------------
Tabbed by: Ian Ferguson
Tuning:EADGBE
Chords are all played as down-strokes only. The Ta-ah-ah-ah-ah-ah-ime section
is mainly bass only, with a couple of guitar licks, as far as I can hear, but
I've put chords in for this section.
INTRO
e|------4------4------2------------------------------------------------------|
B|-----4------4------2-------------------------------------------------------|
G|----4------4------2------2--2----------------------------------------------|
D|---6------6------4------4---4----------------------------------------------|
A|--7------7------5------5----5----------------------------------------------|
E|-0------0------0------0----------------------------------------------------|
YOU SAY YOU NEEDED SOMEONE ...
e|-4---4---4---4---4---4---4---4---2---2---2---2---2---2---2---2-------------|
B|-4---4---4---4---4---4---4---4---2---2---2---2---2---2---2---2-------------|
G|-4---4---4---4---4---4---4---4---2---2---2---2---2---2---2---2-------------|
D|-6---6---6---6---6---6---6---6---4---4---4---4---4---4---4---4-------------|
A|-7---7---7---7---7---7---7---7---5---5---5---5---5---5---5---5-------------|
E|---------------------------------------------------------------------------|
YOU SAY YOU NEEDED A FRIEND ... BUT I WAS SO ALONE ...
e|--4--4--4--4--4--4--4--4--2--2--2--2--2--2--2--2---0---4---2---0-----------|
B|--4--4--4--4--4--4--4--4--2--2--2--2--2--2--2--2---5---4---2---0-----------|
G|--4--4--4--4--4--4--4--4--2--2--2--2--2--2--2--2---6---4---2---1-----------|
D|--6--6--6--6--6--6--6--6--4--4--4--4--4--4--4--4---7---6---4---2-----------|
A|--7--7--7--7--7--7--7--7--5--5--5--5--5--5--5--5---7---6---4---2-----------|
E|---------------------------------------------------0---4---2---0-----------|
DON'T SAY YOU LOVE ME ...
e|-0---0---0---0---0---0---0---0---0---0---0---0---------0-------------------|
B|-0---0---5---5---0---0---5---5---0---0---5---5---------0-------------------|
G|-1---1---6---6---1---1---6---6---1---1---6---6---------1-------------------|
D|-2---2---7---7---2---2---7---7---2---2---7---7---7--7-2-------------------|
A|-2---2---7---7---2---2---7---7---2---2---7---7---7--7-2-------------------|
E|-0---0---0---0---0---0---0---0---0---0---0---0---5--5-0-------------------|
I LOST THE WARMTH IN MY LIFE ...
e|-4---4---4---4---4---4---4---4---2---2---2---2---2---2---2---2-------------|
B|-4---4---4---4---4---4---4---4---2---2---2---2---2---2---2---2-------------|
G|-4---4---4---4---4---4---4---4---2---2---2---2---2---2---2---2-------------|
D|-6---6---6---6---6---6---6---6---4---4---4---4---4---4---4---4-------------|
A|-7---7---7---7---7---7---7---7---5---5---5---5---5---5---5---5-------------|
E|---------------------------------------------------------------------------|
I LET YOU INTO MY HOME ... BUT I WAS SO SAD AND BLUE ...
e|--4--4--4--4--4--4--4--4--2--2--2--2--2--2--2--2---0---4---2---0-----------|
B|--4--4--4--4--4--4--4--4--2--2--2--2--2--2--2--2---5---4---2---0-----------|
G|--4--4--4--4--4--4--4--4--2--2--2--2--2--2--2--2---6---4---2---1-----------|
D|--6--6--6--6--6--6--6--6--4--4--4--4--4--4--4--4---7---6---4---2-----------|
A|--7--7--7--7--7--7--7--7--5--5--5--5--5--5--5--5---7---6---4---2-----------|
E|---------------------------------------------------0---4---2---0-----------|
DON'T SAY YOU LOVE ME ...
e|-0---0---0---0---0---0---0---0---0---0---0---0-----------0-----------------|
B|-0---0---5---5---0---0---5---5---0---0---5---5-----------0-----------------|
G|-1---1---6---6---1---1---6---6---1---1---6---6-----------1-----------------|
D|-2---2---7---7---2---2---7---7---2---2---7---7---7--7---2-----------------|
A|-2---2---7---7---2---2---7---7---2---2---7---7---7--7---2-----------------|
E|-0---0---0---0---0---0---0---0---0---0---0---0---5--5---0-----------------|
TA-AH-AH-AH-AH-AH-IME ....
e|-2---0---2---0---0---------------0-----------------------------------------|
B|-3---2---3---0---0---------------0-----------------------------------------|
G|-2---2---2---2---1----------2----1-----------------------------------------|
D|-0---2---4---2---2---------2-2---2-----------------------------------------|
A|-----4---2---0---2-----2/4----4-------2/42--------------------------------|
E|-----------------0--------------------------0------------------------------|
TA-AH-AH-AH-AH-AH-IME ....
e|-2---0---2---0---0---------------0-----------------------------------------|
B|-3---2---3---0---0---------------0-----------------------------------------|
G|-2---2---2---2---1----------2----1-----------------------------------------|
D|-0---2---4---2---2---------2-2---2-----------------------------------------|
A|-----4---2---0---2-----2/4----4-------2/42--------------------------------|
E|-----------------0--------------------------0------------------------------|
TA-AH-AH-AH-AH-AH-IME ....
e|-2---0---2---0---0---------------------------------------------------------|
B|-3---2---3---0---0---------------------------------------------------------|
G|-2---2---2---2---1----------2----------------------------------------------|
D|-0---2---4---2---2---------2-----------------------------------------------|
A|-----4---2---0---2-----2/4---4---------------------------------------------|
E|-----------------0-------------0-------------------------------------------|
YEH I NEEDED SOMEONE BUT THAT TIME'S GONE NOW BABY I'M GONNA TRY AND ...
e|-4------------------------9------------------------0-----------------------|
B|-4------------------------9------------------------2-----------------------|
G|-4------------------------9------------------------2-----------------------|
D|-6------------------------11-----------------------2-----------------------|
A|-6------------------------11-----------------------4-----------------------|
E|-4------------------------9------------------------------------------------|
SO DON'T SAY YOU LOVE ME ...
e|-0---0---0---0---0---0---0---0---0---0---0---0----------0--0---------------|
B|-0---0---5---5---0---0---5---5---0---0---5---5----------0--0---------------|
G|-1---1---6---6---1---1---6---6---1---1---6---6----------1--1---------------|
D|-2---2---7---7---2---2---7---7---2---2---7---7---7--7--2--2---------------|
A|-2---2---7---7---2---2---7---7---2---2---7---7---7--7--2--2---------------|
E|-0---0---0---0---0---0---0---0---0---0---0---0---5--5--0--0---------------|
(Fade out)
e|-0---0---0---0---0---0---0---0---0---0---0---0----------0--0---------------|
B|-0---0---5---5---0---0---5---5---0---0---5---5----------0--0---------------|
G|-1---1---6---6---1---1---6---6---1---1---6---6----------1--1---------------|
D|-2---2---7---7---2---2---7---7---2---2---7---7---7--7--2--2---------------|
A|-2---2---7---7---2---2---7---7---2---2---7---7---7--7--2--2---------------|
E|-0---0---0---0---0---0---0---0---0---0---0---0---5--5--0--0---------------|
(Fade out)
e|-0---0---0---0---0---0---0---0---0---0---0---0-----------------------------|
B|-0---0---5---5---0---0---5---5---0---0---5---5-----------------------------|
G|-1---1---6---6---1---1---6---6---1---1---6---6-----------------------------|
D|-2---2---7---7---2---2---7---7---2---2---7---7-----------------------------|
A|-2---2---7---7---2---2---7---7---2---2---7---7-----------------------------|
E|-0---0---0---0---0---0---0---0---0---0---0---0-----------------------------|
WORDS
You say you needed someone
But you just needed somewhere to stay
Oh, any other time
Any other time
I'd have told you to be right on your way
You say you needed a friend
But you just needed sympathy
Oh any other time
Any other time
I'd have told you just to let me be
But I was so alone
So alone
Don't say you love me Baby
Don't say you love me
Don't say you love me
'Cos I know it would be just a lie
I lost the warmth in my life
And you came and helped me up when I was down
Oh any other time
Any other time
I'd have let you carry on fooling around
I let you into my home
And I even let you into my heart
Oh but any other time
Any other time
I'd have let you carry on from the very start
But I was so sad and blue
And I just didn't know what to do
Ah don't say you love me baby
Don't say you love me
Don't say you love me
'Cos I know it would be just a lie
Ta-ah-ah-ah-ah-ah-ime
Has told me what I need to know
Ta-ah-ah-ah-ah-ah-ime
Has showed me now what love is for
Ta-ah-ah-ah-ah-ah-ime
Keeps telling me that I've got to go
Yeh I needed someone
But that time's gone
Now baby I'm gonna try and do it
All on my own
So don't say you love me
Don't say you love me
Don't say you love me
'Cos I know it would be just a lie
Don't say you love me Baby
Don't say you love me
Oh don't say that you love me
'Cos I know it would be just a lie
Nah nah nah
Nah nah nah nah nah
(Fadeout)

| / slide up
| slide down
| h hammer-on
| p pull-off
| ~ vibrato
| + harmonic
| x Mute note
===============================================================================




Ваше мнение



Капча