Tabbed by Matt aka TheVinesRule
Intro:
|-7-7--7-9-10-9-7--7-------------|
|-8------------------11-10-8-7---|
|-9------------------------------|
|-9------------------------------|
|--------------------------------|
|--------------------------------|
x2
same for Verse
Chorus:
A5
|-----------------------|
|-----------------------|
|(6)--------------------|
|-7---------------------|
|-7---------------------|
|-5---------------------|
Bridge:
guitar 1:
G5 A#5
|-----------------------|
|-----------------------|
|-----------------------|
|-5---8-----------------|
|-5---8-----------------|
|-3---6-----------------|
x2
Guitar 2:
|-----------------------|
|-3---3---3---3---------|
|---4---4---4---4-------|
|-----------------------|
|-----------------------|
|-----------------------|
|-----------------------|
|-6---6----6---6--------|
|---7---7----7---7------|
|-----------------------|
|-----------------------|
|-----------------------|
x2
Interlude:
|-7--x--7---------------|
|-8--x--8---------------|
|-9--x--9---------------|
|-9--x--9---------------|
|-7--x--7---------------|
|-x--x--x---------------|
x10
Bridge 2: (Ending)
G5 A#5 C#5 D#5
|-----------------------|
|-----------------------|
|-3---8---10--13--------|
|-3---8---10--13--------|
|-3---6---8---11--------|
|-----------------------|




Ваше мнение



Капча