Artist: Franz Ferdinand
title: Shopping For Blood
Tabbed by: Matt
Intro & Main Riff: (Maybe played on bass)
C G D# G A
|----------------------------------------------|
|-4-4-4-/-11-11-11--7-7-7--4-----------------|
|-5-5-5-/-12-12-12--8-8-8--5--6-x-6-x-6------|
|-5-5-5-/-12-12-12--8-8-8--5--7-x-7-x-7------|
|-3-3-3-/-10-10-10--6-6-6--3--7-x-7-x-7------|
|-------------------------------5-x-5-x-5------|

Lead:
|----------------------------|
|-----8-8--------------------|
|-5-5-----8-8--5-5-5---------|
|-------------------7-7x7----|
|----------------------------|
|----------------------------|
Two chords bits played on guitar, with ketboard riff played after:
|--------------------|
|--------------------|
|--9--------6--------|
|--10-------7--------|
|--10-------7--------|
|--8--------5--------|
solo:
|--------------------------------------------------------------|
|----------------------------------------13--13~13~13~13~------|
|-15-------------------------------------15^-------------------|
|-15^-15^(17)-(17)--13-13~-13~-13/15^15^-----------------------|
|--------------------------------------------------------------|
|--------------------------------------------------------------|




Ваше мнение



Капча