Tabbed by TheVinesRule
Intro:
Guitar:
|----------------|
|----------------|
|----------------|
|-7--------------|
|-x--------------|
|-5--------------|
keep playing over the keyboard intro:
Main Riff:
|--------------------------|
|--------------------------|
|--------------------------|
|-7-7--5-4-5-4-------------|
|-----------------2-2-2----|
|--------------------------|
x2
|---------------------------------------|
|---------------------------------------|
|---------------------------------------|
|-7-7--5-4-5-4----------------2-4-2-----|
|-----------------2-2-2---5-5--------2--|
|---------------------------------------|
Verse:
|----------------|
|-7--------------|
|-7--------------|
|-x--------------|
|-5--------------|
|----------------|
Chorus:
|----------------|
|-11-------------|
|-11-------------|
|-x--------------|
|-9--------------|
|----------------|




Ваше мнение



Капча