Hey , Darts of Pleasure the first Single from Franz Ferdinand , this is how
I play it with only one guitar . So Mostly chords
*****************************************************************************
As I said mostly chords but their is a vital bit in the verse which I think is vital to add.
F#m------keep playing ------ Fm-------keep playing-----
e|--2-------------------------------------2----------------------------------
B|--2-------------------------------------2----------------------------------
G|--2----------------------------4^---4-2-2-------------------------4-4-4-4-2
D|--4-------------------------------------4----------------------------------
A|--4-------------------------------------4----------------------------------
E|--2-------------------------------------2----------------------------------
You are the latest contender You are the one to remember
*****************************************************************************
Ok right with that Exsplained here we go
Intro :
E|--2--2---2--5--5---5--2--2---2--0--0--1--1---------------------------
F#m (as put above)
You Are the latest contender You are the one to remeber
F#m (1st as put above) E
You are the villan who sends a line of dark fantastic passion
F#m (as put above)
I know that you will surrender I know that you will surrender
E Em
I want this fantastic passion will have fantastic passion
Chorus:
C Em Am Em
You can feel my lips undress your eyes undress your eyes undress your eyes
C Em B
Words of love and words so leisured words are poisoned darts of pleasure die
Em Bb
and so you die____________
Verse:
F#m (as put above)
You are the latest adventure Your an emotion avenger
F#m (1st as above) E
You are the devil that sells a A line of dark fantastic passion
F#m (as put above)
I Know that you will surrender I know that you will surrender
F#m (as put above) Em
I want this fantastic passion will have fantastic passion
Chorus:
C Em Am Em
You can feel my lips undress your eyes undress your eyes undress your eyes
C Em
Skin can feel my lips they tingle tense anticipation
Am Em
This one is an easy one feel the word and melt upon it
C Em
Words of love and words so leisured Words are poisoned darts of pleasure
B Em
Die__________ and so you die_______
G E G E G E G E
German bit:
G E G E
Ich heise Super fantastisch Ich trinke Champus mit Lachs fisch
G A E
Ich heise Super fantastisch ________________________
G E G E
Ich heise Super fantastisch Ich trinke Champus mit Lachs fisch
G A E
Ich heise Super fantastisch ________________________
G E G E
Ich heise Super fantastisch Ich trinke Champus mit Lachs fisch

G A(x4) E (once) E(once)
Ich Heise Super fantastische!!!!!
-----------------------------------------------------------------------------
The german bit in english
I am called super fantastisch I drink Champus with salmon fish I hot super fantastisch
lol wow


Ваше мнение



Капча