Standard Tuning

/ = slide up
= slide down
r = let note ring

G|--------------------------------------------------------|
D|--------------------------------------------------------|
A|------------7-8--8--8--8-10-----------------------------|
E|-5--5--5--5----------------8--8--8--8-10-12--12--12--0/-| x4

G|--------------------------------------------------------|
D|--------------------------------------------------------|
A|------------7-8--8--8--8-10-----------------------------|
E|-5--5--5--5----------------8--8--8--8-10-12--12--12--12-|

G|---------------------------------------------------|
D|---------------------------------------------------|
A|---------------------------------------------------|
E|-13r-------8r--------1/5/8/13r-8r--------13r-------|
/______________I'm not 100% about this bit

G|-------------------------------------------|
D|-------------------------------------------|
A|-------------------------------------------|
E|-55555555111111115555555511111111333333333-|

G|------------------------------------------------------|
D|------------------------------------------------------|
A|--------------7-8--8--8--8-10-------------------------|
E|-0/5--5--5--5----------------8--8--8--8-10-12--12--12-| x5

G|---------------------------------------------------|
D|---------------------------------------------------|
A|---------------------------------------------------|
E|-13r-------8r--------1/5/8/13r-8r--------13r-------|

G|-------------------------------------------|
D|-------------------------------------------|
A|-------------------------------------------|
E|-55555555111111115555555511111111333333333-|

G|----------------------------------------------------|
D|----------------------------------------------------|
A|------------7-8-------------------------------------|
E|-5-------------------------8--------8h10-12---------| x2

G|------------------------------------------------------|
D|------------------------------------------------------|
A|--------------7-8--8--8--8-10-------------------------|
E|-0/5--5--5--5----------------8--8--8--8-10-12--12--12-| x2

G|---------------------------------|
D|---------------------------------|
A|---------7-7-7-73-3-3-3/7-7-7-7-|
E|-5-5-5-5-------------------------| x2

G|-------------------------------------------------------------------------|
D|-------------------------------------------------------------------------|
A|---------7r-----3r-----/7r--------------7r--------------7r--------------|
E|-5r------------------------------5r--------------5r--------------5r------|

G|-----------------------------------------------------------------|
D|-----------------------------------------------------------------|
A|-7r----------------------3r--------------3r--------------3r------|
E|---------5r------1r--------------1r--------------1r--------------|




Ваше мнение



Капча