Standard Tuning

This isn't one of my most thorough tabs. I'm 99% sure it's right but I
can't be bothered to write it out in full.
Just listen to the tune and you'll get it in no time.

/ = slide up
r = let note ring

G|--------------------------------------------------------------------|
D|--------------------------------------------------------------------|
A|--------------------------------------------------------------------|
E|-5---------------8----------------10---------------13---------------| x2

G|--------------------------------------------------------------------|
D|---7---7---7---7/--10--10--10--10/--12--12--12--12/--15--15--15--15-|
A|--------------------------------------------------------------------|
E|-5---5---5---5---8---8---8---8----10--10--10--10---13--13--13--13---|
up to 1 min 34.5 secs

G|-------------------------------------|
D|-------------------------------------|
A|---------------5/10-10-10-10-8-8-8-8-|
E|-5-5-5-5-5-5-5-----------------------| x4

G|-------------------------------------------------|
D|-------------------------------------------------|
A|-------------------------------------------------|
E|-5-5-5-5-5-5-5-578-8-8-8-8-8-8-3-3-3-3-3-3-3-3-3-| x2

G|--------------------------------------------------------------------|
D|---7---7---7---7/--10--10--10--10/--12--12--12--12/--15--15--15--15-|
A|--------------------------------------------------------------------|
E|-5---5---5---5---8---8---8---8----10--10--10--10---13--13--13--13---|
up to 2 min 43 secs

G|-------------------------------------|
D|-------------------------------------|
A|---------------5/10-10-10-10-8-8-8-8-|
E|-5-5-5-5-5-5-5-----------------------| x4

G|-----------------------------|---------------------|
D|-----------------------------|---------------------|
A|-----------------------------|---------------------|
E|-5-5-5-5-6-6-6-6-10-10-10-10-|-6-6-6-6-10-10-10-10-| x3

G|-------------------------|
D|-------------------------|
A|-------------------------|
E|-6-6-6-6-1-1-1-1/5-5-5-5-|

G|--------------------------------------------------------------------|
D|---7---7---7---7/--10--10--10--10/--12--12--12--12/--15--15--15--15-|
A|--------------------------------------------------------------------|
E|-5---5---5---5---8---8---8---8----10--10--10--10---13--13--13--13---|
up to 3 min 52 secs

G|----------------------------------------------------------------------|
D|----------------------------------------------------------------------|
A|----------------------------------------------------------------------|
E|-5---------------8----------------10---------------13--------------5r-|




Ваше мнение



Капча