Frank Zappa - Willie the pimp
=============================
Tuning: Standard
Transcribed by: Simon Gabler
b = bend ~ = let ring
Intro
E|--------------5-7b8--5-------|
B|-----------------------8-----|
G|---------5-7-------------7-5-|
D|-7~--7-----------------------|
A|-----------------------------|
E|-----------------------------|
E|--------------5-7b8--5-------|
B|-----------------------8-----|
G|---------5-7-------------7-5-|
D|-7~--7-----------------------|
A|-----------------------------|
E|-----------------------------|
The rest of the song is hard to find out (at least I can't do it ;))


Ваше мнение



Капча