From: Systemansvarig
Date: Mon, 2 Oct 1995 13:04:02 +0200 (DFT)

WHAT'S NEW I BALTIMORE - FRANK ZAPPA
-------------------------------------------

From the album 'Meets the Mothers of Prevention'
tabbed by Peder Hedlund
[email protected]
flag = flageolette (is that who you spell it ?)
flag
/---\
E----------3-2-------|---------5----12---- \
B--------5-----3-----|-------7------12--7- |
G------4---------4---|-----6-----5--12--7- |
D----2-------------5-|---4--------------7- |
A--------------------|-------------------- |
E--0-----------------|-0------------------ |
9/8 11/8 |
|
| REPEAT ONCE (LICK ONE )
E---------------------|---------------------- |
B----------3-2--------|---------5---------7-- |
G--------4-----2------|--------5---------7--- |
D------4--------4-----|-----5---------7------ |
A----2------------2-0-|---3---------5-------- |
E--0------------------|-1---------3---------- /
10/8 10/8

E---------------------------------------------
B--------4---------4-----------2-------2------
G------6---4-----6---4-------4---2---4---2----
D----6-------4-6-------4---4-------4---------- REPEAT ONCE ( LICK TWO )
A------------------------0--------------------
E--0------------------------------------------
12/4
REPEAT LICK ONE AND TWO INCLUDING REPRISES

E----------5-6-------|------------------------
B--------7-----7-----|-------4-7-6------------
G------7---------6---|-----4-------6----------
D----8-------------6-|---5-----------6--------
A--------------------|-----------------5------
E--0-----------------|-0-----------------7-6--
9/8 11/8
E------------4-----------4--
B----------5---4-------4----
G--------6-------6---6------
D------6-----------6-------- REPEAT FOUR TIMES
A----4----------------------
E--4------------------------
12/8
( Note : I'm not 100 percent sure about the following part.
Please correct me if you feel it nececery )
E------------------|-------------------
B------------5-8-5-|-------------10-7--
G--------5-7-------|--------6-9-6-------
D------5-----------|------9------------- REPEAT ONCE
A------------------|-10-9---------------
E--3-5-------------|--------------------
12/8 12/8
E---------------------------
B--5-8-6-----------5-7-6-4--
G--------4-5-----3----------
D--------------------------- REPEAT FOUR TIMES
A------------4-3------------
E---------------------------
12/8
SYNTH SOLO




Ваше мнение



Капча