Artist: Frank Zappa
Title: Watermelons in Easter Hay
This is the rhythm that?s played through the entire piece
-------------------------------------------------------------------------------|
--2----------------------------------4-----2--------------------------------4--|
------2------------------------4---------------2------------------------4------|
---------2-----------------4-----------------------2----------------4----------|
----------------------2------------------------------------------2-------------|
-------------3---0-------------------------------------3---0-------------------|
Unfortunately, I don?t have much of the solo part at all. Anyone who does please e-mail
me with it or submit it. Here?s what I do have.
----------------------------------------------------------------------------------|
-----14br---14---12---------------14brbr---14---12----------------------------12--|
-------------------------14---13---------------------------14---13---13---14------|
----------------------------------------------------------------------------------|
----------------------------------------------------------------------------------|
----------------------------------------------------------------------------------|
That?s repeated a few times and I don?t know what comes after it.
enjoy




Ваше мнение



Капча