Date: Tue, 6 Jan 1998 01:25:29 +1100
From: John McInnes
Subject: Tab: Revised Music for Guitar and Low Budget Orchestra by Frank Zappa
Revised Music for Guitar and Low budget Orchestra by Frank Zappa
-3-----------------1--5-
----4-----------3-------
-------3--0--3----------
------------------------
------------------------
------------------------
-0-----0--5--9--8--5-----0--------------0--3--7--9-------------
----2-----------------6-----3--1-----1-----------------7-----4-
----------------------------------2-----------------8-----6----
---------------------------------------------------------------
---------------------------------------------------------------
---------------------------------------------------------------
-------0--11-9-----------------------1--5--3-------------------------
-0--1-----------9-----0-----------------------4--3-------------------
-------------------7-----3--3--2--3-----------------2--3--3--2-------
----------------------------------------------------------------4----
-------------------------------------------------------------------1-
---------------------------------------------------------------------
----------1--------------1--5--3-----------------------------1--2--1----
-------------1--------------------4--3--------------1--3--4-----------3-
----------------3--2--3-----------------2--0--2--3----------------------
----0--1----------------------------------------------------------------
------------------------------------------------------------------------
-3----------------------------------------------------------------------
----------3--1-----------1-----------6--9-------------------------------
-2--1-----------------3-----1--0--3--------9-----------8----------------
-------1--------------------------------------8-----------7-------------
----------------4--1-----------------------------8-----------7----------
----------------------------------------------------8-----------7-----2-
-------------------------------------------------------------------2----
-------------------------3--0-----------6--4-------------------------
-------0--1--0-----0--3--------------2--------4--3--0--1--0-----0--3-
----2-----------2--------------2--3--------------------------2-------
-3-------------------------------------------------------------------
---------------------------------------------------------------------
---------------------------------------------------------------------
Hope you enjoy! tabbed by Dan
[email protected]
any comments,corrections or requests welcome




Ваше мнение



Капча