From [email protected] Oct 15 23:37:35 1997
Date: Wed, 15 Oct 1997 16:56:38 -0400 (EDT)
From: [email protected]
To: [email protected]
Subject: Dirty Love
Frank Zappa, Dirty Love
Dirty Love
Frank Zappa
On the actual recorded version I dinnae hear a guitar on some of the rhythem
sections other than the obvious lead parts by Frank; as a result
I have transcribed the keyboard parts for guitar. For a decent live version
check out Zappa's Universe featuring Dweezil and Steve Vai....

E---||-----------------|-----------------------------|------------------
B---||-----------------|--------7--------------------|--------5---------
G---||--7h8h9--7p5-----|--------7-----7h8h9--7p5-----|--------5--7------
D---||--------------7--|--5--7--7-----------------7--|--5--7--5---------
A---||-----------------|-----------------------------|------------------
E---||-----------------|-----------------------------|------------------
2x 1st Verse
E-----------------|------||---------------------------------------------
B-----------------|------||-----------------7---------------------------
G---h8h9--7p5-----|-----*||-----------------7-----7h8h9-----7p5---------
D--------------7--|-----*||-----------5--7--7--------------------7------
A-----------------|------||---------------------------------------------
E-----------------|------||---------------------------------------------
like you might sur- ren- der to
E---|-----------------------|-------------------------------------------
B---|--------5--------------|-------------------------------------------
G---|--------5--------------|-----------------5-------------------------
D---|--5--7--5--------------|--5--------7--------------7-----5----------
A---|--------------7-----7--|-------------------------------------------
E---|-----------------------|-------------------------------------------
some drag- on in your dreams (ah...)
E---------------------------------|--------------5----------------------
B---------------------------------|--------------5----------------------
G---------------------------------|--------------5-----------7h8h9------
D---------5-----------------------|--------------5----------------------
A---7-----------5-----5-----3-----|--------------5----------------------
E---------------------------------|-----5-------------------------------
Repeat the part until he sings "dreams"
E-----------|--------|--------------------------------|------5--5-------
B-----------|--------|--------------------------------|------------5----
G---7p5-----|--------|--------------------------------|--7^-------------
D--------7--|--------|--------------------------------|-----------------
A-----------|--------|--------------------------------|-----------------
E-----------|--------|--------------------------------|-----------------
I don't need...
E------5--8p5-----5-------5---------------------|------------|----------
B---8----------8-----8p5------------------------|------------|----------
G----------------------------7^--(7)p5--7p5-----|--9---------|----------
D--------------------------------------------7--|--8---------|----------
A-----------------------------------------------|--10--------|----------
E-----------------------------------------------|--8---------|----------
want... whip me up somedragon lo-
E----------------------------------------|--7--------------7------------
B----------12--10------------------------|--7--------------7------------
G---11-----12--10h11---------------------|--7--------------7------------
D---10-----12---------12-----------------|--7--------------7------------
A---12-----------------------------------|--7--------------7------------
E---10--------------------10--11--12--0--|------------------------------
tion for your ... like some ta-cky
E---7--------------------------|--------|--------------|----------------
B---7--------------------------|--------|--------------|----------------
G---7-----------7h8h9--7p5-----|--------|--------------|----------------
D---7-----------------------7--|--------|--------------|--5--7----------
A---7--------------------------|--------|--7--------7--|----------------
E------------------------------|--------|--------------|----------------
lit- tle pam- phlet in your dad- dy's bot- tom
E---------------------------------------|-------------------------------
B---------------------------------------|-------------------------------
G---------------5-----------------------|-------------------------------
D---7-----5-----------7--------5--------|-----5-------------------------
A------------------------------------7--|-----------7-----5-----5-------
E---------------------------------------|-------------------------------
drawer. ... I don't be-lieve you nev- er
E---------|-----------|-----------------------|-------------------------
B---------|-----------|-----------------------|-------------------------
G---------|-----------|-----------------5-----|-------------------------
D---------|-----------|-----5--------7--------|--7-----5----------------
A---------|-----------|--7--------------------|--------------7----------
E---8-----|-----------|-----------------------|-------------------------
seen his book be-fore I
E---------------------------|-------------------------------------------
B---------------------------|-------------------------------------------
G---------------------------|--5--5^-----5--5^--------5--5-----5--------
D---5-----------------------|---------7---------7--5--------7-----------
A---------7-----5-----5-----|-------------------------------------------
E------------------------8--|-------------------------------------------
don't need no conso-la- tion, I don't want
E--------|-----------------------------------------------|--------------
B--------|--5-----------x--x--x--x--x--x-----------------|--------------
G--------|--3-----------x--x--x--x--x--x-----5--5--5--x--|--/7----------
D---5h7--|--5-----------x--x--x--x--x--x--------------x--|--------------
A--------|--3-----------x--x--x--x--x--x-----3--3--3--x--|--35----------
E--------|-----------------------------------------------|--------------
your reser-va-tion. I on-ly got one dest- i- na-tion
E------------------------------------|----------------------------------
B---7--------7--7--7-----7-----------|--------------7-------------------
G---5-----x--5--5--5-----5-----------|--7-----------7-------------------
D---7-----x--7--7--7-----7-----------|--7-----------7-------------------
A---5-----x--5--5--5-----5-----------|--7-----------7-------------------
E------------------------------0-----|--0-----------------0--0--0-------
and tha- t's your dirty love your
E------------------------|--------------------------------------|-------
B------------------------|--------------------------------------|-------
G------------------------|-----------x--------7-----5-----------|-------
D------------------------|--x--------x--------7--------5--------|-------
A---7-----------------7--|--x--------x--------5-----------5-----|-------
E---------0-----0--------|--x--------x--5--5-----------------5--|-------
dirty love Guitar solo D
E------------------------|-/17-----------17-----17--17-------------|----
B---------------------5--|--17-----------17-----17---------20^~~~--|----
G---x--------x--x--x--5--|/-18-------------------------------------|----
D---x--------x--x--x--5--|-----------------------------------------|----
A---x--------x--x--x--3--|-----------------------------------------|----
E---x--------x--x--x-----|-----------------------------------------|----
C
E--------17------------17----------17-----20^--|--20^p17--20-----17-----
B---~~~------20p17h20------17--17--------------|--20--------------------
G----------------------------------------------|------------------------
D----------------------------------------------|------------------------
A----------------------------------------------|------------------------
E----------------------------------------------|------------------------
D
E------20p17------17---------17----------------------|------------------
B-------------21------21p17------17--20--17----------|------------------
G--------------------------------------------19^~~~--|~~~--21-----------
D----------------------------------------------------|---------21-------
A----------------------------------------------------|------------------
E----------------------------------------------------|------------------
C
E-----------------------------------------------|---------17------------
B-----------------------------------------------|---------17h22p17------
G--------------14-------------------------------|/18--18----------------
D---17\14------14-------------------------------|-----------------------
A----------15------17^--15-----17^--17--15--17--|-----------------------
E-----------------------------------------------|-----------------------
D Rake it Nanook!
E---17-------------------------x--------------------------------|-------
B---17--20p17------17-------------x-----------------------------|-------
G--------------19------17------------17-------------------------|-------
D--------------------------19--------------------17-------------|-------
A----------------------------------------19--19------17--15--17/|-------
E---------------------------------------------------------------|-------
C
E-----------------------------------------------------------|-----------
B-----------17----------17--20------------------------------|-----------
G-------17----------------------19^~~~------17--17--19--16--|--17-------
D-------17------19--17------------------19------------------|-----------
A---19------------------------------------------------------|-----------
E-----------------------------------------------------------|-----------
D
E-----------------------------------------------------------------------
B-----------------------------------------------------------------------
G-------------17----------------------5---------------------------------
D---19p17h19------17--19\---5h7--5h7-----7p5h7p5------------------------
A-------------------------------------------------5--5--0--0------------
E-------------------------------------------------------------3^p0------
C Cm7
E---|-----------------------------------5--------|-------8--------------
B---|-----------------------------------5/10--9--|----8-----8--11^------
G---|----------------5-----5-----5--7^-----------|/9--------------------
D---|-------------------7-----7------------------|----------------------
A---|-------------5------------------------------|----------------------
E---|--(0)--5--8---------------------------------|----------------------
rake it! Dm7
E--------x------------------------------------------------|-------------
B---~~~-----x--------------8------------------------------|-------------
G--------------10--8h10p8-----x-----------8---------------|-----12------
D--------------------------------10p8h10-----10p8---------|-------------
A--------------------------------------------------10--8--|/12----------
E---------------------------------------------------------|-------------

E---------------------10---------10--15--13--10-------------------------
B---10--13--10h13p10------10h13------------------10--10h13p10h13--------
G-----------------------------------------------------------------10----
D-----------------------------------------------------------------------
A-----------------------------------------------------------------------
E-----------------------------------------------------------------------
E9sus4
E---|-----12----------------------12--------------12-----|--------------
B---|/12------15^^p12--15--15p12------15--12--15------15\|------5-------
G---|------------------12--12----------------------------|--7^----------
D---|----------------------------------------------------|---------7----
A---|----------------------------------------------------|--------------
E---|----------------------------------------------------|--------------
D
E--------------------5--8--5--5----------------------|------------------
B--------------------5-----------8----------5--------|------------------
G---5-----------5h7-----------------5h7^p5-----------|------------------
D------7---------------------------------------5-----|-------------7----
A-------------------------------------------------7--|-----5h7--7-------
E----------------------------------------------------|--8---------------
Give me...
E-------------------------------------|---------------------------------
B-------------------------------------|---------------------------------
G---5-----5h7p5--5--5-----------------|---------------------------------
D------7---------------7--5-----------|---------------------------------
A----------------------------7--5--5--|---------------------------------
E-------------------------------------|---------------------------------




Ваше мнение



Капча