From: Jere Klami

TAB: Frank Black: White Noise Maker, from the album Teenager of the Year

I tried to write down the synth chords where possible. You can play along
With them with a guitar. The song starts with bass. Corrections, complaints
Compliments and congratulations welcome. I didn't write the whole lyrics.
(synth)
(bass) x 4 F# D#m D#m ? ? Bm
----------------------------4444
----------------------------3333
-------------------------------- ----------------------------4444
----6666--------4-4-4-4--------- --------------------------------
6666-------------------6-------- 66666666----------------22222222
--------44444444---------------- --------6666666622222222--------
You know I hear a lot of talk...

F# D#m B F#m
------------------------99999999 --------------------------------
-------------------------------- --------------------------------
-------------------------------- --------------------------------
-------------------------------- --------------------------------
--------88888888---------------- 44444444444444444444444444444444
22222222--------7777777777777777 22222222222222222222222222222222
To get a white noise maker... Or maybe the interior...

(Real electric guitar chords, at last!)
D#m B C# F# C# D# B C# (x 2)
---------------- 2-------4-------6-------2---4---
---------------- 2-------6-------8-------4---6---
---------------- 3-------6-------8-------4---6---
8888888844446666 4-------6-------8-------4---6---
6666666622224444 4-------4-------6-------2---4---
---------------- 2-------------------------------
Yeah the yak... Like harvest moon o'er my head ...

F# C#m B Bm F# E D D/E
2-------4-------2-----------2--- 2-------0-------2-------4-------
2-------6-------4-----------3--- 2-------0-------3-------5-------
3-------6-------4-----------4--- 3-------1-------2-------4-------
4-------6-------4-----------4--- 4-------2-------0---------------
4-------4-------2-----------2--- 4-------2-----------------------
2------------------------------- 2-------0-----------------------
It's been so long since my Telstar, I hope it crashes in the sea

Guitar solo
-------- -------- -------- ---42-67 6------4 -6-424----- ---42-97-14-12
-------- -------- -------5 32------ -------- ------4242- 04------------
10-8---- 8-6----- ---4-6-- -------- -------- ----------- --------------
----8--- ---4---6 7------- -------- -------- ----------- --------------
-------- -------- -------- -------- -------- ----------- --------------
-------- -------- -------- -------- -------- ----------- --------------
D# A# F# Bm F# D# B
(bass)
Not much new happens after the solo, the song just repeats itself. The
Solo is not rhythmically correct, so play with the record. I'm sure this
Isn't the best way to place your fingers while palying, but it was
Easiest for me to write down this way.
[email protected]=950-5587766=valtatie9as28=90500oulu=-
- Lattialla on hyv{ olla, ei huolet paina ei rasitu polla...




Ваше мнение



Капча